System Of A Down - Ddevil Chords & Tabs

 

Ddevil Chords & Tabs

System Of A Down Chords & Tabs

Version: 5 Type: Tab 0 ratings
1 star 2 stars 3 stars 4 stars 5 stars
comments

Ddevil Tab

System of a Down
Song Name: DDevil
Tuning: Drop D

Tabbed by Brian (Munky266@aol.com)

Listen to the song to get the right rhythm on this one.

Intro (starts with bass only)
---------------------
---------------------
---------------------
--0-6-0-5-0-6665-----
--0-6-0-5-0-6665-----
--0-6-0-5-0-6665-----

Verse
-------------------------------------------
-------------------------------------------
-------------------------------------------
-------------------------7P6---------------
---------------------6H7-----6H7-----------
-0-0-000-0-000-0-000-----------------------
 |------PM----------|
[ Tab from: http://www.guitartabs.cc/tabs/s/system_of_a_down/ddevil_tab_ver_5.html ]
Chorus
---------|----------------------------
---------|----------------------------
---------|----------------------------
-6-5-8-7-|---0-6-0-5-0-6665-8-7-------
-6-5-8-7-|---0-6-0-5-0-6665-8-7-------
-6-5-8-7-|---0-6-0-5-0-6665-8-7-------      

Bridge
--------------------------------------------------------------------
--------------------------------------------------------------------
--------------------------------------------------------------------
-0-6-0-5-0-6665---0-6-0-5-0-6665---0-6-0-5---0-6-0-5----------------
--------------------------------------------------------------------
--------------------------------------------------------------------
Comments