System Of A Down - Ddevil Chords & Tabs

 

Ddevil Chords & Tabs

System Of A Down Chords & Tabs

Version: 2 Type: Tab 0 ratings
1 star 2 stars 3 stars 4 stars 5 stars
comments

Ddevil Tab

   
 SyStEm Of A dOwN
  D-devil
 
  main riff      8x           verse riff
-|-------------------|----------------------------------|
-|-------------------|----------------------------------|
-|-------------------|--------------------------5-4-----|
-|-------------------|------------------------------5-4-|
-|-4-6--4-5--4-6-4-5-|-2--2-2--2-2--2-2--2-2--2---------|
-|-4-6--4-6--4-6-4-5-|----------------------------------|


|------------|
|------------|
|------------|2x
|------------|
|-7--6--8--7-|
|-5--4--6--5-|

solo
|---------------------|
|---------------------|
|-2-3-1-2--1-3-3--1-2-|
|---------------------|
|---------------------|
|---------------------|
[ Tab from: http://www.guitartabs.cc/tabs/s/system_of_a_down/ddevil_tab_ver_2.html ]
Comments