System Of A Down - Ddevil Chords & Tabs

 

Ddevil Chords & Tabs

System Of A Down Chords & Tabs

Version: 2 Type: Bass Tab 0 ratings
1 star 2 stars 3 stars 4 stars 5 stars
comments

Ddevil Bass Tab

   
Artist: System of a Down
Album: System of a Down (1998)
Track: 6
Song: D-devil
By: Jeff Tiemann (Heater794@aol.com
Tuning: C-G-C-F


Intro

|-----------------------|
|-0-6-0-5-0-60-0-5------|
|-----------------------|
|-----------------------|

Heavy
[ Tab from: http://www.guitartabs.cc/tabs/s/system_of_a_down/ddevil_btab_ver_2.html ]
|-----------------------|
|-----------------------|
|-----------------------|
|-0-6-0-5-0-60-0-5------|

Verse

|--------------------------------------------------|
|---------------------------------------7p6--------|
|-----------------------------------6h7-----6h7----|
|-7-7-77-7-77-77-77-77-77-77--7-7-7----------------|

Chorus

|---------------------------------------|
|---------------------------------------|
|---------------------------------------|
|--5-4-6-5---0-6-0-5-0-60-0-5--0---65---|
Comments