System Of A Down - Days Are Never Coming Back Chords & Tabs

 

Days Are Never Coming Back Chords & Tabs

System Of A Down Chords & Tabs

Version: 1 Type: Tab 0 ratings
1 star 2 stars 3 stars 4 stars 5 stars
comments

Days Are Never Coming Back Tab

   
System of a down
Highway Song
Steal this Album

I just corrected The name from here, so atleast i can still stir up some controversy,
corrected some small errors but I did tab this from a bootlegged version of the song 5
ago. . . so this version is NOT THE ALBUM version!! the guitar part is completely 
or rather Unherd in this version of the song and it didn't have as many dubbed guitars in it.

C,G,C,F,A,D
Soad Tuning

p.h=Pinch of Harmanics

p.m.=Pum mute

LR=Let it ring

Intro/Riff 1
|------------------------------------------------|
|------------------------------------------------|
|------------------------------------------------|
|----0-0--0-0--0-0--0-0--0-0--0-0--0-0--0-0--0-0-|
|----0-0--0-0--0-0--0-0--0-0--0-0--0-0--0-0--0-0-|
|----0-0--0-0--0-0--0-0--0-0--0-0--0-0--0-0--0-0-|
p.m.|...........................................|

Riff 2
|--------------------------------------------------------------------|
|--------------------------------------------------------------------|
|--------------------------------------------------------------------|
|----0-0-----0-0-----0-0-----0-0-----0-0-----0-0-----0-0-----0-0-----|
|----0-0-----0-0-----0-0-----0-0-----0-0-----0-0-----0-0-----0-0-----|
|----0-0-7-6-0-0--6--0-0-7-6-0-0--6--0-0-7-6-0-0--6--0-0-7-6-0-0--6--|
p.m.|...............................................................|


 Riff 3/p.h      p.h.   p.h.    p.h.    p.h.    p.h.    p.h.    p.h.
|---------------------------------------------------------------------|
|---------------------------------------------------------------------|
|---------------------------------------------------------------------|
|----0-0<5-5>0-0<5-5>0-0<5-5>0-0<5-5>0-0<5-5>0-0<5-5>0-0<5-5>0-0<5-5>-|
|----0-0-----0-0-----0-0-----0-0-----0-0-----0-0-----0-0-----0-0------|
|----0-0-----0-0-----0-0-----0-0-----0-0-----0-0-----0-0-----0-0------|
p.m.|...|   |...|   |...|   |...|   |...|   |...|   |...|   |...|


Verse
Riff 4
low Reverb,a bit of Tremelo,and some Delay not to much.
|--5----4----0----3---------------5----------------------------4---------0----3---|
|--6----6----2----5----6--------6---6-----6---------6--------6---6-------2----5---|
|--7----6----2----5------7------------7-----7---------6------------6-----2----5---|
|--7----6----2----5--------7--7---------7--------6------6--6-------------2----5---|
|--5----4----0----3----------------------------5----------------------4--0----3---|
|--5----4----0----3------------------------------------------------------0----3---|


Riff 5
W/Distortion
|----------------------------------------------------------------------------------|
|----------------------------------------------------------------------------------|
|----------------------------------------------------------------------------------|
|----5-5-5-5-5-5--5-5-5-5-5-4-4-4-4-4-4-4-4-4---1-1-1-1-1-1-1-1--3-3-3-3-3-3-3-3-3-|
|----5-5-5-5-5-5--5-5-5-5-5-4-4-4-4-4-4-4-4-4---1-1-1-1-1-1-1-1--3-3-3-3-3-3-3-3-3-|
|----5-5-5-5-5-5--5-5-5-5-5-4-4-4-4-4-4-4-4-4---1-1-1-1-1-1-1-1--3-3-3-3-3-3-3-3-3-|
p.m.|...........  ....... . .................   ...............  .................|

|----------------|
|----------------|
|----------------|
|----3-3-3-3-3-3-|
|----3-3-3-3-3-3-|
|----3-3-3-3-3-3-|
p.m.|...........|

Verse 2
Riff 4
|--5----4----0----3---------------5----------------------------4---------0----3---|
|--6----6----2----5----6--------6---6-----6---------6--------6---6-------2----5---|
|--7----6----2----5------7------------7-----7---------6------------6-----2----5---|
|--7----6----2----5--------7--7---------7--------6------6--6-------------2----5---|
|--5----4----0----3----------------------------5----------------------4--0----3---|
|--5----4----0----3------------------------------------------------------0----3---|

Riff 5
W/Distortion   This time play this part twice.
|----------------------------------------------------------------------------------|
|----------------------------------------------------------------------------------|
|----------------------------------------------------------------------------------|
|----5-5-5-5-5-5--5-5-5-5-5-4-4-4-4-4-4-4-4-4---1-1-1-1-1-1-1-1--3-3-3-3-3-3-3-3-3-|
|----5-5-5-5-5-5--5-5-5-5-5-4-4-4-4-4-4-4-4-4---1-1-1-1-1-1-1-1--3-3-3-3-3-3-3-3-3-|
|----5-5-5-5-5-5--5-5-5-5-5-4-4-4-4-4-4-4-4-4---1-1-1-1-1-1-1-1--3-3-3-3-3-3-3-3-3-|
p.m.|...........  ....... . .................   ...............  .................|

|----------------|
|----------------|
|----------------|
|----3-3-3-3-3-3-|
|----3-3-3-3-3-3-|
|----3-3-3-3-3-3-|
p.m.|...........|


Solo...i think,Riff 6
Clean tone
|----------12------12-12-----------12------12-12-----------12------12-12----|
|-------15-------15------15-----15------15--------15----15------15-------15-|
|----14--------14-------------13------13--------------15------15------------|
|---------------------------------------------------------------------------|
|---------------------------------------------------------------------------|
|---------------------------------------------------------------------------|
Slightly p.m.
(the whole solo)
[ Tab from: http://www.guitartabs.cc/tabs/s/system_of_a_down/days_are_never_coming_back_tab.html ]
Riff 7
W/Distortion
|-------------------------|
|-------------------------|
|-------------------------|
|----5-5--5-5--5-5--5-5---|
|----5-5--5-5--5-5--5-5---|
|----5-5--5-5--5-5--5-5---|
p.m.|..................|
Riff 2
|--------------------------------------------------------------------|
|--------------------------------------------------------------------|
|--------------------------------------------------------------------|
|----5-5-----5-5-----5-5-----5-5-----5-5-----5-5-----5-5-----5-5-----|
|----5-5-----5-5-----5-5-----5-5-----5-5-----5-5-----5-5-----5-5-----|
|----5-5-7-6-5-5--6--5-5-7-6-5-5--6--5-5-7-6-5-5--6--5-5-7-6-5-5--6--|
p.m.|...............................................................|
Riff 8
|------------------------|
|------------------------|
|------------------------|
|----4----7----2----5----|
|----4----7----2----5----|
|----4----7----2----5----|
LR   ....................

Riff 9
|-------------------------------------------------|
|-------------------------------------------------|
|-------------------------------------------------|
|----4-4-4-4-4-4-7-7-7-7-7--2-2-2-2-2-5-5-5-5-5-5-|
|----4-4-4-4-4-4-7-7-7-7-7--2-2-2-2-2-5-5-5-5-5-5-|
|----4-4-4-4-4-4-7-7-7-7-7--2-2-2-2-2-5-5-5-5-5-5-|
P.M.|............................................|

Riff 6
Clean tone
|----------12------12-12-----------12------12-12-----------12------12-12----|
|-------15-------15------15-----15------15--------15----15------15-------15-|
|----14--------14-------------13------13--------------15------15------------|
|---------------------------------------------------------------------------|
|---------------------------------------------------------------------------|
|---------------------------------------------------------------------------|
Slightly p.m.

|----------12------12-12-----------12------12-12-----------12------12-12----|
|-------15-------15------15-----15------15--------15----15------15-------15-|
|----14--------14-------------13------13--------------15------15------------|
|---------------------------------------------------------------------------|
|---------------------------------------------------------------------------|
|---------------------------------------------------------------------------|
Slightly p.m.                |this is where he starts singin

|----------12------12-12-----------12------12-12-----------12------12-12----|
|-------15-------15------15-----15------15--------15----15------15-------15-|
|----14--------14-------------13------13--------------15------15------------|
|---------------------------------------------------------------------------|
|---------------------------------------------------------------------------|
|---------------------------------------------------------------------------|
|                                                                           |
|                                                                           |
|                                                                           |
|  Riff 10                                                                  |
|---------------------------------------------------------------------------|
|---------------------------------------------------------------------------|
|---------------------------------------------------------------------------|
|---------------------------------------------------------------------------|
|-----------------------------------------------------5-5-5-5-5-5-5-5-5-5-5-|
|---------------------------------------------------------------------------|

|----------12------12-12-----------12------12-12-----------12------12-12----|
|-------15-------15------15-----15------15--------15----15------15-------15-|
|----14--------14-------------13------13--------------15------15------------|
|---------------------------------------------------------------------------|
|---------------------------------------------------------------------------|
|---------------------------------------------------------------------------|
|                                                                           |
|                                                                           |
|                                                                           |
|                                                                           |
|---------------------------------------------------------------------------|
|---------------------------------------------------------------------------|
|---------------------------------------------------------------------------|
|---------------------------------------------------------------------------|
|----4-4-4-4-4-4-4-4--4-4-4--1-1-1-1-1-1-1-1-1-1-1-1---3-3-3-3-3-3-3-3-3-3-3|
|---------------------------------------------------------------------------|

play the Riff 6/Solo to more times

Riff 2                                  p.h     p.h     p.h
|--------------------------------------------------------------------|
|--------------------------------------------------------------------|
|--------------------------------------------------------------------|
|----0-0-----0-0-----0-0-----0-0-----0-0<5-5>0-0<5-5>0-0<5-5>0-0-----|   The End
|----0-0-----0-0-----0-0-----0-0-----0-0-----0-0-----0-0-----0-0-----|
|----0-0-7-6-0-0--6--0-0-7-6-0-0--6--0-0-----0-0-----0-0-----0-0-----|
p.m.|...................................|   |...|   |...|   |...|

Hating_everything_@hotmail.com
Comments