System Of A Down - Darts Chords & Tabs

 

Darts Chords & Tabs

System Of A Down Chords & Tabs

Version: 6 Type: Tab 0 ratings
1 star 2 stars 3 stars 4 stars 5 stars
comments

Darts Tab

   
System of a Down ----
S.O.A.D. ------------
Darts ---------------

Tabbed by: Devon Marquis
Posted: March 29, 2004
Email: adr_enaline@hotmail.com
AIM: popnshroomz

Tuning: C-G-C-F-A-D
PM = palm mute


1:-----------------|-----------------|-------------------------|-----------------|
2:-----------------|-----------------|-------------------------|-----------------|
3:-----------------|-----------------|-------------------------|-----------------|
4:-0-0-0-0-0-0-0-0-|-6-6-6-6-6-6-6-6-|-11-11-11-11-11-11-11-11-|-5-5-5-5-5-5-5-5-|
5:-0-0-0-0-0-0-0-0-|-6-6-6-6-6-6-6-6-|-11-11-11-11-11-11-11-11-|-5-5-5-5-5-5-5-5-|
6:-0-0-0-0-0-0-0-0-|-6-6-6-6-6-6-6-6-|-11-11-11-11-11-11-11-11-|-5-5-5-5-5-5-5-5-|



1:---------------|---------------|---------------|--------|
2:-----9--9/11\9-|-----8--8/10\8-|-----9--9/11\9-|----8b9-|
3:-7-------------|-6-------------|-7-------------|-6--6---|
4:---------------|---------------|---------------|--------|
5:---------------|---------------|---------------|--------|
6:---------------|---------------|---------------|--------|



1:--------------------------|---------12----|--------11----|---------10----|-------|
2:-10(8x)-9(8x)-8(8x)-7(8x)-|-10--10-----10-|-9-9-9------9-|-8--8-8------8-|-7b8r7-|
3:--------------------------|---------------|--------------|---------------|-------|
4:--------------------------|---------------|--------------|---------------|-------|
5:--------------------------|---------------|--------------|---------------|-------|
6:--------------------------|---------------|--------------|---------------|-------|



1:--------------|--------------|-----------|-------------------------|
2:--------------|--------------|-----------|-------------------------|
3:--------------|--------------|-----------|-------------------------|
4:-----6--6/8\6-|-----5--5/7\5-|-----6/8\6-|-----ah5b6.6.6.6.6.6.6.6-|
5:-5------------|-4------------|-5---------|-4-----------------------|
6:--------------|--------------|-----------|-------------------------|


[ Tab from: http://www.guitartabs.cc/tabs/s/system_of_a_down/darts_tab_ver_6.html ]
1:---------------------|
2:---------------------|
3:---------------------|
4:-0----6----11----5---|
5:-0----6----11----5---|
6:-0----6----11----5---|



PM
1:-----------------|-----------------|-------------------------|-----------------|
2:-----------------|-----------------|-------------------------|-----------------|
3:-----------------|-----------------|-------------------------|-----------------|
4:-0-0-0-0-0-0-0-0-|-6-6-6-6-6-6-6-6-|-11-11-11-11-11-11-11-11-|-5-5-5-5-5-5-5-5-|
5:-0-0-0-0-0-0-0-0-|-6-6-6-6-6-6-6-6-|-11-11-11-11-11-11-11-11-|-5-5-5-5-5-5-5-5-|
6:-0-0-0-0-0-0-0-0-|-6-6-6-6-6-6-6-6-|-11-11-11-11-11-11-11-11-|-5-5-5-5-5-5-5-5-|



d----ah5----ah5----ah5----ah5-|----ah4----ah4----ah4----ah4-|----ah3----ah3----ah3----ah3-|
a---x------x------x------x----|---x------x------x------x----|---x------x------x------x----|
f--x------x------x------x-----|--x------x------x------x-----|--x------x------x------x-----|
c-x------x------x------x------|-x------x------x------x------|-x------x------x------x------|
g-----------------------------|-----------------------------|-----------------------------|
c-----------------------------|-----------------------------|-----------------------------|


1:------------|------------|----------------|------------|
2:------------|------------|----------------|------------|
3:------------|------------|----------------|------------|
4:-0--0--0--0-|-6--6--6--6-|-11--11--11--11-|-5--5--5--5-|
5:-0--0--0--0-|-6--6--6--6-|-11--11--11--11-|-5--5--5--5-|
6:-0--0--0--0-|-6--6--6--6-|-11--11--11--11-|-5--5--5--5-|



PM
1:-----------------------------------|
2:-----------------------------------|
3:-----------------------------------|
4:-0----6----11----5----0----6----11-|
5:-0----6----11----5----0----6----11-|
6:-0----6----11----5----0----6----11-|

This song is definitely awesome and crazy!  Serj's voice is most unique, and the tempo
is great.  It's a pretty damn easy song to play best of all!  Well, make sure to rate
this tab and leave some freakin comments because I like reading people's comments.  And
don't forget to rate, mate!  Laterz!
Comments