System Of A Down - Darts Chords & Tabs

 

Darts Chords & Tabs

System Of A Down Chords & Tabs

Version: 1 Type: Bass Tab 0 ratings
1 star 2 stars 3 stars 4 stars 5 stars
comments

Darts Bass Tab

-=Darts=- System of a down
=========

Intro/verse
F-----------------------------------------------------------------
C-----------------------------------------------------------------
G-----------------------------------------------------------------
C---3--3-3-3-3-3-3---6--6-6-6-6-6-6---9--9-9-9-9-9---5--5-5-5-5-5-
[ Tab from: http://www.guitartabs.cc/tabs/s/system_of_a_down/darts_btab.html ]
 After intro
F-----------------------------------------------------------------
C---3--3-3-3-3-3-3---6--6-6-6-6-6-6---9--9-9-9-9-9---5--5-5-5-5-5-
G-----------------------------------------------------------------
C-----------------------------------------------------------------
 

 With guitar
F-------------------
C-5-5-5-5-5-5-5-5---
G-------------------
C-------------------

 Bridge
F-----------------------------
C-----------------------------
G-----------------------------
C-----3-----6-------9-------5-

 Outro part one
F-------------------------------------------
C-------------------------------------------
G-------------------------------------------
C--3-3-3-3----6-6-6-6----9-9-9-9----5-5-5-5-


F-------------------------------
C-------------------------------
G-------------------------------
C--3-------6---------9--------5-
Comments