System Of A Down - Cubert Chords & Tabs

 

Cubert Chords & Tabs

System Of A Down Chords & Tabs

Version: 1 Type: Tab 3 ratings
1 star 2 stars 3 stars 4 stars 5 stars
comments

Cubert Tab

   
Artist:System of A Down
Song:CUBErt
Album:System of A Down

I think this sounds pretty close.

[ Tab from: http://www.guitartabs.cc/tabs/s/system_of_a_down/cubert_tab.html ]
Tune down to :C F A# D# G C
                                                pm............  pm.........
-|-17171717171717171717--17171717171717171717--|---------------------------|--
-|---------------------------------------------|---------------------------|--
-|---------------------------------------------|---------------------------|--
-|---------------------------------------------|---------------------------|--
-|---------------------------------------------|-0000000000000--00000000000|--
-|---------------------------------------------|-0000000000000--00000000000|--
  *************play 2 times******************** *******play two times******   
  
           pm........         pm.........         pm........            
-|----------------------------------------------------------|-----------------
-|----------------------------------------------------------|-----------------
-|-5------------------5-------------------5-----------------|-----------------
-|---6-8-5--------------6-8-5---------------6-8-5-----------|-----------------
-|---------0000000000---------00000000000---------0000000000|-----------------
-|---------0000000000---------00000000000---------0000000000|-----------------
   *********************verse riff*************************   

                                pm.........    pm.........
-|---------------------------|----------------------------|-------------------
-|---------------------------|----------------------------|-------------------
-|---9---------9-------------|----------------------------|-------------------
-|-7-7-9-10--7-7-10-13-9-12-8|--00000000000----00000000000|-6-666-6--6-666-6--
-|-5---7-8---5---8--11-7-10-6|--00000000000----00000000000|-4-444-4--4-444-4--
  *****chorus riff**********                                                  

------------------|-----------------------------------------------------------
------------------|-----------------------------------------------------------
------------------|-----------------------------------------------------------
------------------|-----------------------------------------------------------
-7-777-7--7-777-7-|-----------------------------------------------------------
-5-555-5--5-555-5-|-----------------------------------------------------------     
Comments