System Of A Down - Cubert Chords & Tabs

 

Cubert Chords & Tabs

System Of A Down Chords & Tabs

Version: 2 Type: Bass Tab 0 ratings
1 star 2 stars 3 stars 4 stars 5 stars
comments

Cubert Bass Tab

   
Artist: System of a Down
Song: CUBErt
Tabbed by: Shanee' Barron (shanee__b@hotmail.com)

standard SOAD tuning - low to high (C, G, C, F)

Intro/Verse
F|--------------------
C|--------------------
G|--------------------
C|-5-5-5-5-5-5-5-5-5--
[ Tab from: http://www.guitartabs.cc/tabs/s/system_of_a_down/cubert_btab_ver_2.html ]
Chorus
F|--------------------------------
C|--------------------------------
G|----5----------5----------------
C|--5---7-8-5------7-8-7-8-6---5--

Bridge
F|--------------------------------
C|--------------------------------
G|--------------------------------
C|-4-4-4-4-4-4-4--5-5-5-5-5-5-5-5-

yes, I corrected my own tab...
Comments