System Of A Down - Chop Suey Chords & Tabs

 

Chop Suey Chords & Tabs

System Of A Down Chords & Tabs

Version: 4 Type: Tab 11 ratings
1 star 2 stars 3 stars 4 stars 5 stars
comments

Chop Suey Tab

   
CHOP SUEY! -System Of A Down      from TOXICITY
Tuning: C G C F A D
Tabbed by nottingham@infinito.it
I'm not english do apologize mistakes.

INTRO
 
Acoustic Guitar                                                       
D--------------------------------                                    
A--------------------------------                                    
F--/5-5555---77777--44444---22222                                   
C--/7-7777---99999--55555---44444 2 times  
G-----0000---00000--00000---00000                                     
C-------------------------------- 
                                   
When the 2nd time starts                                                                                         
the Guitar w/i Distortion (palm muted) play this

D--------------------------------------------------------------
A--------------------------------------------------------------
F-----5---5---5-----7---7---7----4---4---4----2---2---2-------- 
C-------7---7---7-----9---9---9----5---5---5----4---4---4------ 3 times then go to THEN   
G-------------------------------------------------------------- 
C-------------------------------------------------------------- 

Acoustic guitar (to be played when the 2nd time of distorted guitar starts)

  10x  10x  10x 10x  10x  10x  10x  10x (fast strumming)
D--8-/-10-/-7-/-12-/-12-/-13-/-10-/-13-----------------
A-10-/-12-/-8-/-13-/-13-/-15-/-12-/-15-----------------
F------------------------------------------------------
C------------------------------------------------------    
G------------------------------------------------------  
C------------------------------------------------------ 

THEN

Guitar with heavy distortion  (very fast picking)
D--------------------------------------------------------------------
A--------------------------------------------------------------------
F--------------------------------------------------------------------
C--7-7-7-7-7-7------6-6-6-6-6-------9-9-9-9-9-9-----12-12-12-12-12-12   4 times
G--7-7-7-7-7-7------6-6-6-6-6-------9-9-9-9-9-9-----12-12-12-12-12-12   
C--7-7-7-7-7-7------6-6-6-6-6-------9-9-9-9-9-9-----12-12-12-12-12-12 
 
VERSE
Guitar w/i Distortion
D------------------------------------------------------------------------------- 
A------------------------------------------------------------------------------- 
F------------------------------------------------------------------------------- 
C-------------------------------------------------------------------------------    
G-7-7---7-7-7-7-7-7--6-6---6-6-6-6-6-6----3 times---7-7--7-7-7-7-7-7---6-7-9-7-6 
C-7-7---7-7-7-7-7-7--6-6---6-6-6-6-6-6--------------7-7--7-7-7-7-7-7---6-7-9-7-6


BRIDGE
 ________________________________________________________
|
|   Guitar w/i distortion (palm muted)
|
|   D-----------------------------------------------------------------------  
|   A----------------------------------------------------------------------- 
|   F---5-------5--------7--------7--------4-------4-------2-------2-------- 
|   C-----7---7---7---5----9----9---9----9---5---5---5---5---4---4---4---4-- 
|   G-------7-------7--------10-------10-------7-------7-------5-------5---- 
|   C----------------------------------------------------------------------- 
|   Acoustic Guitar (fast strumming)
|
|     10x  10x 10x  10x 10x  10x 10x  10x 
|   D--8-/-10-/-7-/-12-/--8-/-10-/-7-/-12------------------ 
|   A-10-/-12-/-8-/-13-/-10-/-12-/-8-/-13------------------ 
|   F------------------------------------------------------
|   C------------------------------------------------------   
|   G------------------------------------------------------  
|   C------------------------------------------------------ 
|__________________________________________________________

[ Tab from: http://www.guitartabs.cc/tabs/s/system_of_a_down/chop_suey_tab_ver_4.html ]
Guitar with heavy distortion  (very fast picking)
D--------------------------------------------------------------------          -----------------
A--------------------------------------------------------------------          -----------------
F--------------------------------------------------------------------          -----------------
C--7-7-7-7-7-7------6-6-6-6-6-------9-9-9-9-9-9-----12-12-12-12-12-12 2 times  -7-7-7-7-7-7-7-7- 
G--7-7-7-7-7-7------6-6-6-6-6-------9-9-9-9-9-9-----12-12-12-12-12-12          -7-7-7-7-7-7-7-7-  
C--7-7-7-7-7-7------6-6-6-6-6-------9-9-9-9-9-9-----12-12-12-12-12-12          -7-7-7-7-7-7-7-7-


VERSE


BRIDGE 2
 _____________________________________________________________________________
|
|   Guitar w/i distortion (palm muted)
|
|   D-----------------------------------------------------------------------  
|   A----------------------------------------------------------------------- 
|   F---5-------5--------7--------7--------4-------4-------2-------2-------- 
|   C-----7---7---7---5----9----9---9----9---5---5---5---5---4---4---4---4--   
|   G-------7-------7--------10-------10-------7-------7-------5-------5---- 
|   C----------------------------------------------------------------------- 
|
|   D-----------------------------------------------------------------------  
|   A----------------------------------------------------------------------- 
|   F---5-------5--------7--------7--------4-------4-------2-------2--2----- 
|   C-----7---7---7---5----9----9---9----9---5---5---5---5---4---4----3-----   
|   G-------7-------7--------10-------10-------7-------7-------5------------ 
|   C-----------------------------------------------------------------------  
| 
|   Acoustic Guitar  (fast strumming)
|
|     10x  10x 10x  10x  10x  10x  10x 10x  10x  10x  10x  10x  10x  10x  10x
|   D--8-/-10-/-7-/-12-/--8-/-10-/-7-/-12-/-12-/-13-/-10-/-13-/-12-/-13-/-10--
|   A-10-/-12-/-8-/-13-/-10-/-12-/-8-/-13-/-13-/-15-/-12-/-15-/-13-/-15-/-12-- 
|   F-------------------------------------------------------------------------
|   C-------------------------------------------------------------------------   
|   G-------------------------------------------------------------------------  
|   C------------------------------------------------------------------------- 
|_____________________________________________________________________________

Guitar with heavy distortion  (very fast picking)

D--------------------------------------------------------------------
A--------------------------------------------------------------------
F--------------------------------------------------------------------
C--7-7-7-7-7-7------6-6-6-6-6-------9-9-9-9-9-9-----12-12-12-12-12-12 2 times
G--7-7-7-7-7-7------6-6-6-6-6-------9-9-9-9-9-9-----12-12-12-12-12-12   
C--7-7-7-7-7-7------6-6-6-6-6-------9-9-9-9-9-9-----12-12-12-12-12-12 
 

D--------------------------------------------------------------------           
A--------------------------------------------------------------------           
F--------------------------------------------------------------------           
C--------------------------------------------------------------------  2 times 
G--------------------------------------------------------------------            
C--7-7-7-7-7-7------2-2-2-2-2-------9-9-9-9-9-9-----12-12-12-12-12-12


D--------------------------------------------------------------------
A--------------------------------------------------------------------
F--------------------------------------------------------------------
C--------------------------------------------------------------------  2 times
G--7-7-7-7-7-7------6-6-6-6-6-------9-9-9-9-9-9-----12-12-12-12-12-12   
C--7-7-7-7-7-7------6-6-6-6-6-------9-9-9-9-9-9-----12-12-12-12-12-12 

END
 _________________________________________________________________________
|
|   Guitar w/i Distortion
|
|   D-----------------     ------------------------------------- 
|   A-----------------     ------------------------------------- 
|   F-----------------     ------------------------------------- 
|   C--7------3------- 12x ----7---------------------------------   
|   G--7------3-------     ----7---------------------------------  
|   C--7------3-------     ----7--------------------------------- 
|
|    Piano or Clean Guitar starts at the 5th time
|
|   D-----------------------------------------------------------------------  
|   A----------------------------------------------------------------------- 
|   F---5-------5--------7--------7--------4-------4-------2-------2-------- 
|   C-----7---7---7---5----9----9---9----9---5---5---5---5---4---4---4---4-- 
|   G-------7-------7--------10-------10-------7-------7-------5-------5---- 
|   C----------------------------------------------------------------------- 
|____________________________________________________________________________
Comments