System Of A Down - Chop Suey Chords & Tabs

 

Chop Suey Chords & Tabs

System Of A Down Chords & Tabs

Version: 3 Type: Tab 0 ratings
1 star 2 stars 3 stars 4 stars 5 stars
comments

Chop Suey Tab

System of a Down - Chop Sewie
Album: Toxicity
Transcribed by: Nick Coulter
E-mail: ncoult@hotmail.com

All Guitars Dropped-D tunning, then 
down a whole step low to high (CGCFAd).

Intro:
  Gtr. 1 (clean elec.) 
  Rhy. Fig. 1
d|---------------------------|---------------------------|
A|-2-2-2-2-2-2-2-2-2-2-2-2-2-|-4-4-4-4-4-4-4-4-4-4-4-4-4-|
F|-3-3-3-3-3-3-3-3-3-3-3-3-3-|-5-5-5-5-5-5-5-5-5-5-5-5-5-|
C|---------------------------|---------------------------|
G|---------------------------|---------------------------|
C|---------------------------|---------------------------|

                                       End of Rhy. Fig. 1 
d|---------------------------|---------------------------|
A|---------------------------|---------------------------|
F|-5-5-5-5-5-5-5-5-5-5-5-5-5-|-3-3-3-3-3-3-3-3-3-3-3-3-3-|
C|-6-6-6-6-6-6-6-6-6-6-6-6-6-|-4-4-4-4-4-4-4-4-4-4-4-4-4-|
G|---------------------------|---------------------------|
C|---------------------------|---------------------------|


  Gtr. 2 (clean elec.)
  (Gtr. 1 plays Rhy. Fig. 1)
d|-------------|-------------|-------------|-------------|
A|-2---2---2---|-4---4---4---|-------------|-------------|
F|---3---3---3-|---5---5---5-|-5---5---5---|-3---3---3---|
C|-------------|-------------|---6---6---6-|---4---4---4-|
G|-------------|-------------|-------------|-------------|
C|-------------|-------------|-------------|-------------|

[ Tab from: http://www.guitartabs.cc/tabs/s/system_of_a_down/chop_suey_tab_ver_3.html ]
  Gtr. 3 (w/dist.)
  Tremelo Pick 
  (Played during Gtrs. 1 & 2's intro)
d|-----11----13--|
A|--14----13-----|
F|---------------|
C|---------------|
G|---------------|
C|---------------|


  Gtrs. 1 & 2 (w/dist.)
  (Really Fast and Heavy Part)
d|-----------------|-----------------|-------------------------|-------------------------|
A|-----------------|-----------------|-------------------------|-------------------------|
F|-----------------|-----------------|-------------------------|-------------------------|
C|-----------------|-----------------|-------------------------|-------------------------|
G|-8-8-8-8-8-8-8-8-|-7-7-7-7-7-7-7-7-|-10-10-10-10-10-10-10-10-|-13-13-13-13-13-13-13-13-|
C|-8-8-8-8-8-8-8-8-|-7-7-7-7-7-7-7-7-|-10-10-10-10-10-10-10-10-|-13-13-13-13-13-13-13-13-|


  Gtr. 1 (w/dist.)
  (Really Fast Verse Part)
d|---------------------|
A|---------------------|
F|---------------------|
C|---------------------|
G|--8-8-8-7-8-7-0-8-7--|
C|--8-8-8-7-8-7-0-8-7--|

  Gtr. 2 (w/dist.)
  Palm Mute
  (This is played right after the part above is played a few times.)
d|---------|---------|---------|---------|
A|-2-----2-|-4-----4-|---------|-2-----2-|
F|---3-3---|---5-5---|-5-----5-|---3-3---|
C|---------|---------|---6-6---|---------|
G|---------|---------|---------|---------|
C|---------|---------|---------|---------|


  Gtr. 1 (w/dist.)
  (Slow emotional part)
d|----------------|
A|----------------|
F|----------------|
C|-----10-----10--|
G|--8--8--10--8---|
C|--8-----10------|

Comments