System Of A Down - Chop Suey Chords & Tabs

 

Chop Suey Chords & Tabs

System Of A Down Chords & Tabs

Version: 20 Type: Tab 0 ratings
1 star 2 stars 3 stars 4 stars 5 stars
comments

Chop Suey Tab

this is my first tab..
pretty sure its rite.

             CHOP SUEY!
tuning:cgcfad

intro~clean
------------------------------------------------------------------------------|
------------------------------------------------------------------------------|
--5---5--5----5--5---5-5-5-5-5--5/7--7--7--7--7--7---4--4--4--4--4--4---4-----|
--7---7--7----7--7---7-7-7-7-7--7/9--9--9--9--9--9---5--5--5--5--5--5---5-----|
--0--------------0--------------0-------------0---------0---------------0-----|
------------------------------------------------------------------------------|

------------------------------------------------------------------------------|
------------------------------------------------------------------------------|
-4--4--4--4--4\2---2--2--2--2--2---2--2--2--2--2------------------------------|
-5--5--5--5--5\3---3--3--3--3--3---3--3--3--3--3------------------------------|
-------------0-----------------0---------0-----0----0---0---------------------|
------------------------------------------------------------------------------|

-----------------------------------------------------------------------------|
-----------------------------------------------------------------------------|
--5---------5---------5--------7-------7--------7--------4------4------4-----|
-------7---------7--------7-------9--------9--------9\-------5-----5------5\-|
-----------------------------------------------------------------------------|
-----------------------------------------------------------------------------|
pm.    .    .    .    .   .    .  .    .   .    .   .    .   .  .  .   .  .
                                                                |(distorion)|
-8-------8-----------8---------8----------10-------7-----12----12-------------|
---------10----------10--------10---------12-------8-----13----13-------------|
------------------------------------------------------------------------------|
------------------------------------------------------------------------------|
-------------------------------------------------------------------8--7--8----|
-------------------------------------------------------------------8--7--8----|
Tremelo picking~~~~~~~~~~~~~~~~~~~~~~~~~~~~~~~~~~~~~~~~~~~~~~~~~~`

------------------------------------------------------------------------------|
------------------------------------------------------------------------------|
------------------------------------------------------------------------------|
------------------------------------------------------------------------------|
7--8--7--8--7--7--6--7--6--7--6--7--6--10--9--10--9--10--9--10--9--12--10-----|
7--8--7--8--7--7--6--7--6--7--6--7--6--10--9--10--9--10--9--10--9--12--10-----|

--------------------------------------------------------------------------------------|
--------------------------------------------------------------------------------------|
--------------------------------------------------------------------------------------|
--------------------------------------------------------------------------------------|
-12--10--12--10--12--10----8--7--8--7--8--7--8--7--7--6--7--6--7--6--7--6-------------|
-12--10--12--10--12--10----8--7--8--7--8--7--8--7--7--6--7--6--7--6--7--6-------------|

-----------------------------------------------------------------------------|
-----------------------------------------------------------------------------|
-----------------------------------------------------------------------------|
-----------------------------------------------------------------------------|
-10--9--10--9--10--9--10--9--12--10--12--10--12--10--12--10------------------|
-10--9--10--9--10--9--10--9--12--10--12--10--12--10--12--10---7--7--7--7--7--|


-----------------------------------------------------------------------------|
-----------------------------------------------------------------------------|
-----------------------------------------------------------------------------|
-----------------------------------------------------------------------------|
-----------------------------------------------------------------------------|
-7--7--7--6--6--6--6--6--6--6--6--9--9--9--9--9--9--9--9--12--12--12--12--12-|

------------------------------------------------------------------------------|
------------------------------------------------------------------------------|
------------------------------------------------------------------------------|
------------------------------------------------------------------------------|
------------------------------------------------------------------------------|
-12--12--12--7--7--7--7--7--7--7--7--6--6--6--6--6--6--6--6--9--9--9--9--9--9-|

---------------------------------------|
---------------------------------------|
---------------------------------------|
---------------------------------------|
---------------------------------------|
-9--9--12--12--12--12--12--12--12--12--|

-----------------------------------------------------------------------------|
-----------------------------------------------------------------------------|
-----------------------------------------------------------------------------|
-8--7------8--7--8--7--8--7--8--7--6------7--6--7--6--7--6--7--6--8--7-------|
-8--7------8--7--8--7--8--7--8--7--6------7--6--7--6--7--6--7--6--8--7-------|

wake up...
-----------------------------------------------------------------------------|
-----------------------------------------------------------------------------|
-----------------------------------------------------------------------------|
---8--7--8--7--8--7--8--7--6------7--6--7--6--7--6--7--6--8--7---------------|
---8--7--8--7--8--7--8--7--6------7--6--7--6--7--6--7--6--8--7---------------|

-----------------------------------------------------------------------------|
-----------------------------------------------------------------------------|
-----------------------------------------------------------------------------|
---8--7--8--7--8--7--8--7--6------7--6--7--6--7--6--7--6--8--7---------------|
---8--7--8--7--8--7--8--7--6------7--6--7--6--7--6--7--6--8--7---------------|

-----------------------------------------------------------------------------|
-----------------------------------------------------------------------------|
-----------------------------------------------------------------------------|
---8--7--8--7--8--7--8--7--6------7--6--7--6--7--6--7--6--8--7---------------|
---8--7--8--7--8--7--8--7--6------7--6--7--6--7--6--7--6--8--7---------------|

(clean)
------------------------------------------------------------------------------|
------------------------------------------------------------------------------|
---5-------5--------5-----7------7-----7------4-----4----4------2-----2-------|
------7-------7--------------9-----9-------------5----5-----------3------3--3-|
-0-------0------0------0-------0-----0----0--------0----0---0-------0------0--|
------------------------------------------------------------------------------|

trust in  my..........
------------------------------------------------------------------------------|
------------------------------------------------------------------------------|
---5-------5--------5-----7------7-----7------4-----4----4------2-----2-------|
------7-------7--------------9-----9-------------5----5-----------3------3--3-|
-0-------0------0------0-------0-----0----0--------0----0---0-------0------0--|
------------------------------------------------------------------------------|

(distortion)
-----------------------------------------------------------------------------|
-----------------------------------------------------------------------------|
-----------------------------------------------------------------------------|
-----------------------------------------------------------------------------|
-8--7--8--7--8--7--8--7--7--6--7--6--7--6--7--6--10--9--10--9--10--9--10--9--|
-8--7--8--7--8--7--8--7--7--6--7--6--7--6--7--6--10--9--10--9--10--9--10--9--|

die.......................................................
-----------------------------------------------------------------------------|
-----------------------------------------------------------------------------|
-----------------------------------------------------------------------------|
-----------------------------------------------------------------------------|
-12--10--12--10--12--10--12--10----------------------------------------------|
-12--10--12--10--12--10--12--10----------------------------------------------|

-----------------------------------------------------------------------------|
-----------------------------------------------------------------------------|
-----------------------------------------------------------------------------|
-----------------------------------------------------------------------------|
-8--7--8--7--8--7--8--7--7--6--7--6--7--6--7--6--10--9--10--9--10--9--10--9--|
-8--7--8--7--8--7--8--7--7--6--7--6--7--6--7--6--10--9--10--9--10--9--10--9--|


-----------------------------------------------------------------------------|
-----------------------------------------------------------------------------|
-----------------------------------------------------------------------------|
-----------------------------------------------------------------------------|
-12--10--12--10--12--10--12--10----------------------------------------------|
-12--10--12--10--12--10--12--10----------------------------------------------|

-----------------------------------------------------------------------------|
-----------------------------------------------------------------------------|
-----------------------------------------------------------------------------|
-----------------------------------------------------------------------------|
-8--7--8--7--8--7--8--7--8--7--8--7--8--7--8--7------------------------------|
-8--7--8--7--8--7--8--7--8--7--8--7--8--7--8--7------------------------------|

rah.............................................

-----------------------------------------------------------------------------|
-----------------------------------------------------------------------------|
-----------------------------------------------------------------------------|
-8--7------8--7--8--7--8--7--8--7--6------7--6--7--6--7--6--7--6--8--7-------|
-8--7------8--7--8--7--8--7--8--7--6------7--6--7--6--7--6--7--6--8--7-------|

wake up
-----------------------------------------------------------------------------|
-----------------------------------------------------------------------------|
-----------------------------------------------------------------------------|
---8--7--8--7--8--7--8--7--6------7--6--7--6--7--6--7--6--8--7---------------|
---8--7--8--7--8--7--8--7--6------7--6--7--6--7--6--7--6--8--7---------------|


-----------------------------------------------------------------------------|
-----------------------------------------------------------------------------|
-----------------------------------------------------------------------------|
---8--7--8--7--8--7--8--7--6------7--6--7--6--7--6--7--6--8--7---------------|
---8--7--8--7--8--7--8--7--6------7--6--7--6--7--6--7--6--8--7---------------|

[ Tab from: http://www.guitartabs.cc/tabs/s/system_of_a_down/chop_suey_tab_ver_20.html ]
-----------------------------------------------------------------------------|
-----------------------------------------------------------------------------|
-----------------------------------------------------------------------------|
---8--7--8--7--8--7--8--7--6------7--6--7--6--7--6--7--6--8--7---------------|
---8--7--8--7--8--7--8--7--6------7--6--7--6--7--6--7--6--8--7---------------|

(clean)
------------------------------------------------------------------------------|
------------------------------------------------------------------------------|
---5-------5--------5-----7------7-----7------4-----4----4------2-----2-------|
------7-------7--------------9-----9-------------5----5-----------3------3--3-|
-0-------0------0------0-------0-----0----0--------0----0---0-------0------0--|
------------------------------------------------------------------------------|

trust  in  my..................

------------------------------------------------------------------------------|
------------------------------------------------------------------------------|
---5-------5--------5-----7------7-----7------4-----4----4------2-----2-------|
------7-------7--------------9-----9-------------5----5-----------3------3--3-|
-0-------0------0------0-------0-----0----0--------0----0---0-------0------0--|
------------------------------------------------------------------------------|

------------------------------------------------------------------------------|
------------------------------------------------------------------------------|
---5-------5--------5-----7------7-----7------4-----4----4------2-----2-------|
------7-------7--------------9-----9-------------5----5-----------3------3--3-|
-0-------0------0------0-------0-----0----0--------0----0---0-------0------0--|
------------------------------------------------------------------------------|
die.............................

-----------------------------------------------------------------------------|
-----------------------------------------------------------------------------|
---5-------5--------5-----7------7-----7------4-----4----4-------------------|
------7-------7--------------9-----9-------------5----5----------------------|
-0-------0------0------0-------0-----0----0--------0----0---0----------------|
-----------------------------------------------------------------------------|

.....cide                  i    cry........

(distortion)
-----------------------------------------------------------------------------|
-----------------------------------------------------------------------------|
-----------------------------------------------------------------------------|
-----------------------------------------------------------------------------|
-8--7--8--7--8--7--8--7--7--6--7--6--7--6--7--6--10--9--10--9--10--9--10--9--|
-8--7--8--7--8--7--8--7--7--6--7--6--7--6--7--6--10--9--10--9--10--9--10--9--|


-----------------------------------------------------------------------------|
-----------------------------------------------------------------------------|
-----------------------------------------------------------------------------|
-----------------------------------------------------------------------------|
-12--10--12--10--12--10--12--10----------------------------------------------|
-12--10--12--10--12--10--12--10----------------------------------------------|


-----------------------------------------------------------------------------|
-----------------------------------------------------------------------------|
-----------------------------------------------------------------------------|
-----------------------------------------------------------------------------|
-8--7--8--7--8--7--8--7--7--6--7--6--7--6--7--6--10--9--10--9--10--9--10--9--|
-8--7--8--7--8--7--8--7--7--6--7--6--7--6--7--6--10--9--10--9--10--9--10--9--|


-----------------------------------------------------------------------------|
-----------------------------------------------------------------------------|
-----------------------------------------------------------------------------|
-----------------------------------------------------------------------------|
-12--10--12--10--12--10--12--10----------------------------------------------|
-12--10--12--10--12--10--12--10----------------------------------------------|


-----------------------------------------------------------------------------|
-----------------------------------------------------------------------------|
-----------------------------------------------------------------------------|
-----------------------------------------------------------------------------|
-8--7--8--7--8--7--8--7--7--6--7--6--7--6--7--6--10--9--10--9--10--9--10--9--|
-8--7--8--7--8--7--8--7--7--6--7--6--7--6--7--6--10--9--10--9--10--9--10--9--|

pm......................................................................
-----------------------------------------------------------------------------|
-----------------------------------------------------------------------------|
-----------------------------------------------------------------------------|
-----------------------------------------------------------------------------|
-12--10--12--10--12--10--12--10----------------------------------------------|
-12--10--12--10--12--10--12--10----------------------------------------------|

pm..............................
father.....

-----------------------------------------------------------------------------|
-----------------------------------------------------------------------------|
-----------------------------------------------------------------------------|
-----------------------------------------------------------------------------|
-8--7--8--7--8--7--8--7--7--6--7--6--7--6--7--6--10--9--10--9--10--9--10--9--|
-8--7--8--7--8--7--8--7--7--6--7--6--7--6--7--6--10--9--10--9--10--9--10--9--|

pm.........................................................................
-----------------------------------------------------------------------------|
-----------------------------------------------------------------------------|
-----------------------------------------------------------------------------|
-----------------------------------------------------------------------------|
-12--10--12--10--12--10--12--10----------------------------------------------|
-12--10--12--10--12--10--12--10----------------------------------------------|

pm...............................

-----------------------------------------------------------------------------|
-----------------------------------------------------------------------------|
-----------------------------------------------------------------------------|
-----------------------------------------------------------------------------|
-----------------------------------------------------------------------------|
-7--7--7--6--6--6--6--6--6--6--6--9--9--9--9--9--9--9--9--12--12--12--12--12-|

father in to your hands i commend my spirits.........

------------------------------------------------------------------------------|
------------------------------------------------------------------------------|
------------------------------------------------------------------------------|
------------------------------------------------------------------------------|
------------------------------------------------------------------------------|
-12--12--12--7--7--7--7--7--7--7--7--6--6--6--6--6--6--6--6--9--9--9--9--9--9-|

---------------------------------------|
---------------------------------------|
---------------------------------------|
---------------------------------------|
---------------------------------------|
-9--9--12--12--12--12--12--12--12--12--|


-----------------------------------------------------------------------------|
-----------------------------------------------------------------------------|
-----------------------------------------------------------------------------|
---------------10------10--10-------5-----5--5--5----10-----10---10--10------|
-7-----7--7----8-------8---8--------3-----3--3--3----8------8----8---8-------|
-7-----7--7------------------------------------------------------------------|

forsaken       me  in your eyes   forsaken me        in your......

-----------------------------------------------------------------------------|
-----------------------------------------------------------------------------|
-----------------------------------------------------------------------------|
---------------10------10--10-------5-----5--5--5----10-----10---10--10------|
-7-----7--7----8-------8---8--------3-----3--3--3----8------8----8---8-------|
-7-----7--7------------------------------------------------------------------|

forsaken me......

-----------------------------------------------------------------------------|
-----------------------------------------------------------------------------|
-----------------------------------------------------------------------------|
---------------10------10--10-------5-----5--5--5----10-----10---10--10------|
-7-----7--7----8-------8---8--------3-----3--3--3----8------8----8---8-------|
-7-----7--7------------------------------------------------------------------|

trust          in                   my

-----------------------------------------------------------------------------|
-----------------------------------------------------------------------------|
-----------------------------------------------------------------------------|
---------------10------10--10-------5-----5--5--5----10-----10---10--10------|
-7-----7--7----8-------8---8--------3-----3--3--3----8------8----8---8-------|
-7-----7--7------------------------------------------------------------------|

              i    cry........
-----------------------------------------------------------------------------|
-----------------------------------------------------------------------------|
-----------------------------------------------------------------------------|
---------------10------10--10-------5-----5--5--5----10-----10---10--10------|
-7-----7--7----8-------8---8--------3-----3--3--3----8------8----8---8-------|
-7-----7--7------------------------------------------------------------------|
               in                    my

-----------------------------------------------------------------------------|
-----------------------------------------------------------------------------|
-----------------------------------------------------------------------------|
---------------10------10--10-------5-----5--5--5----10-----10---10--10------|
-7-----7--7----8-------8---8--------3-----3--3--3----8------8----8---8-------|
-7-----7--7------------------------------------------------------------------|

               i                    cry
-----------------------------------------------------------------------------|
-----------------------------------------------------------------------------|
-----------------------------------------------------------------------------|
-----------------------------------------------------------------------------|
-10-------7~~~~~~~~~~~~~~~~~~------------------------------------------------|
-8--------7~~~~~~~~~~~~~~~~~-------------------------------------------------|
             (let ring out)
           die.......................................


enjoy!!
Comments