System Of A Down - Chop Suey Chords & Tabs

 

Chop Suey Chords & Tabs

System Of A Down Chords & Tabs

Version: 18 Type: Tab 0 ratings
1 star 2 stars 3 stars 4 stars 5 stars
comments

Chop Suey Tab

   
-------------------------------------------------------------------------------
			     Chop Suey - System Of A Down
-------------------------------------------------------------------------------
Tabbed by: OzzyRulesU (Corey "DoR" Hamilton)

Tuning: C G C F A D (Drop D, Down 1 Step)
This is 100% correct cause I bought the Toxicity book.

Intro (Clean):

e|---------------------------------------------------------------|
B|---------------------------------------------------------------|
G|-5--5-5----5-5----5-5-5-5-5--5--5-/-7--7-7-7-7--7-7-7-7-7-7----| 
D|-7--7-7----7-7----7-7-7-7-7--7--7-/-9--9-9-9-9--9-9-9-9-9-9----|
A|-0-----------0------------0-----0-/----------0----------0------|
E|---------------------------------------------------------------|

e|---------------------------------------------------------------------------|
B|---------------------------------------------------------------------------|
G|-4-4-4-4-4---4--4-4-4-4--4-\-2--2-2-2-2--2--2-2--2-2--2--------------------|
D|-5-5-5-5-5---5--5-5-5-5--5-\-3--3-3-3-3--3--3-3--3-3--3--------------------|
A|-0-----------0-----------0-\-0-----------0-------0----0--------------------|
E|---------------------------------------------------------------------------|

Then:

e|---------------------------------------------------|
B|---------------------------------------------------|
G|-5---5---5---7---7---7---4---4---4---2---2---2-----|
D|---7---7---7---9---9---9---5---5---5---3---3---3---|
A|---------------------------------------------------|
E|---------------------------------------------------|

e|-8-8-8-10-10-10-7-7-7-12-12-12-12-12-12-14-14-14-10-10-10-14-14141414141414-|
B|-10101012-12-12-8-8-8-13-13-13-13-13-13-15-15-15-12-12-12-15-15151515151515-|
G|----------------------------------------------------------------------------|
D|----------------------------------------------------------------------------|
A|----------------------------------------------------------------------------|
E|----------------------------------------------------------------------------|

e|----------------------------------------------------------------------------|
B|----------------------------------------------------------------------------|
G|----------------------------------------------------------------------------|
D|----------------------------------------------------------------------------|
A|-8-7-8-7-8-7-8-7-7-6-7-6-7-6-7-6-10-9-10-9-10-9-10-9-12-10-12-10-12-10-12-10|
e|-8-7-8-7-8-7-8-7-7-6-7-6-7-6-7-6-10-9-10-9-10-9-10-9-12-10-12-10-12-10-12-10|

e|---------------------------------------------------------------------------|
B|---------------------------------------------------------------------------|
G|---------------------------------------------------------------------------|
D|---------------------------------------------------------------------------|
A|---------------------------------------------------------------------------|
E|-7-7-7-7-7-7-7-7-6-6-6-6-6-6-6-6--9-9-9-9-9-9-9-9-12-12-12-12-12-12-12-12--|

Verse:
[ Tab from: http://www.guitartabs.cc/tabs/s/system_of_a_down/chop_suey_tab_ver_18.html ]
e|--------------------------------------------------|
B|--------------------------------------------------|
G|--------------------------------------------------|
D|--------------------------------------------------| X 4 times
A|-8-7--8-7-8-7-8-7-8-7------7-6---7-6-7-6-7-6-7-6--|
E|-8-7--8-7-8-7-8-7-8-7------7-6---7-6-7-6-7-6-7-6--|
   (Wake up....)

Part Between Chorus and Verse:

e|-----------------------------------------------------------------|
B|-----------------------------------------------------------------|
G|-5---5-----5-------7---7-----7-----4---4-----4--2---2-----2------|
D|-------7-----------------9---------------5------------3----------|
A|---0-----0-----------0-----0---------0-----0------0-----0--------|
E|-----------------------------------------------------------------|
 PM . . . . .        . . . . . .     . . . . . .  . . . . . .

e|----------------------------------------------------------------------------|
B|----------------------------------------------------------------------------|
G|----------------------------------------------------------------------------
D|----------------------------------------------------------------------------|
A|-8-7-8-7-8-7-8-7-7-6-7-6-7-6-7-6-10-9-10-9-10-9-10-9-12-10-12-10-12-10-12-10|
e|-8-7-8-7-8-7-8-7-7-6-7-6-7-6-7-6-10-9-10-9-10-9-10-9-12-10-12-10-12-10-12-10|

e|---------------------------------=|
B|----------------------------------|
G|----------------------------------|
D|----------------------------------|
A|-8-7-8-7-8-7-8-7-8-7-8-7-8-7-8-7--|
E|-8-7-8-7-8-7-8-7-8-7-8-7-8-7-8-7--|

Play verse again and the between part

e|----------------------------------------------------------------------------|
B|----------------------------------------------------------------------------|
G|----------------------------------------------------------------------------|
D|----------------------------------------------------------------------------|
A|-8-7-8-7-8-7-8-7-7-6-7-6-7-6-7-6-10-9-10-9-10-9-10-9-12-10-12-10-12-10-12-10|
e|-8-7-8-7-8-7-8-7-7-6-7-6-7-6-7-6-10-9-10-9-10-9-10-9-12-10-12-10-12-10-12-10|

e|----------------------------------------------------------------------------|
B|----------------------------------------------------------------------------|
G|----------------------------------------------------------------------------|
D|------------------------------------------------------------------| X 2 times
A|----------------------------------------------------------------------------|
e|-8-7-8-7-8-7-8-7-7-6-7-6-7-6-7-6-10-9-10-9-10-9-10-9-12-10-12-10-12-10-12-10|
 PM. . . . . . . . . . . . . . . . .  . .  . .  . .  . .  .  .  .  .  .  .  .

e|---------------------------------------------------------------------------|
B|---------------------------------------------------------------------------|
G|---------------------------------------------------------------------------|
D|------------------------------------------------------------------| X 2 times
A|---------------------------------------------------------------------------|
E|-7-7-7-7-7-7-7-7-6-6-6-6-6-6-6-6--9-9-9-9-9-9-9-9-12-12-12-12-12-12-12-12--|

e|-----------------------------------------------|
B|-----------------------------------------------|
G|-----------------------------------------------|
D|-------------10-10-10------5-5-5-5---10-10-10--|
A|-7-7-7-------8--8--8-------3-3-3-3---8--8--8---|
E|-7-7-7-----------------------------------------|

(Why have you forsaken me, in your heart forsaken me...)

Thats pretty much it, its a pretty easy song. I play this song when I practice
with my band Relic and its perfect. You will be hearing about Relic in the near
future cause we got some  good songs that are sure to land us a deal. Peace.

-OzzyRulesU (Corey "DoR" Hamilton)
Comments