System Of A Down - Chop Suey Chords & Tabs

 

Chop Suey Chords & Tabs

System Of A Down Chords & Tabs

Version: 8 Type: Bass Tab 0 ratings
1 star 2 stars 3 stars 4 stars 5 stars
comments

Chop Suey Bass Tab

   
Intro 

F---------------------------------------------------------------
C---------------------------------------------------------------
G-----------------------------------------------8---------------
C--7---------7---------7---------7---------7---------10----3----

F-----------------------------------
C-----------------------------------
G------8----------------------------
C-7---------10----3-3-3-3-3-3-3-3-3-

Figure 1

F-----------------------------------------------------------------------------
C-----------------------------------------------------------------------------
G-----------------------------------------------------------------------------
C-8-7-8-7-8-7-8-7-7-6-7-6-7-6-7-6-10-9-10-9-10-9-10-9-12-10-12-10-12-10-12-10-

Figure 2
 
F--------------------------------------------------------------------------
C-7-7-7-7-7-7-7-7-6-6-6-6-6-6-6-6-9-9-9-9-9-9-9-9-12-12-12-12-12-12-12-12--
G--------------------------------------------------------------------------
C--------------------------------------------------------------------------

Figure 3

F----------------------------------------------
C----------------------------------------------
G----------------------------------------------
C-8-7---8-7-8-7-8-7-8-7-7-6---7-6-7-6-7-6-7-6--

Figure 4
[ Tab from: http://www.guitartabs.cc/tabs/s/system_of_a_down/chop_suey_btab_ver_8.html ]
F-------------------------------------------------
C-------------------------------------------------
G------8------------------------------------------
C-7---------10----3--3-5--------------------------

Figure 5

F----------------------------------------------------
C----------------------------------------------------
G-------------8--8--8-------------------0-------------
C-7--7--7-7-0------------10--10--10--10---3--3--3---5-

Figure 6

F----------------------------------------------------
C----------------------------------------------------
G-------------8--8--8------------------0-------------
C-7--7----7-0------------10--10--10-10---3-----------

Figure 7

F----------------------------------------
C----------------------------------------
G------8----------8---------8------------
C-7---------10---------7---------10----3-

Figure 8

F------------------------------------------------------
C------------------------------------------------------
G-------------8--8--8------------------0---------------
C-7--7--7-7-0------------10--10--10-10---3-3-3-3--5--7-

Intro
Figure 1 (2x)
Figure 2 (2x)
Figure 3 (5x)
Figure 4 (2x)
Figure 1 (2x)
Figure 3 (5x)
Figure 4 (2x)
Figure 5
Figure 6
Figure 1 (2x)
Figure 1 (2x PM)
Figure 2 (2x)
Figure 7
Figure 5 (3x)
Figure 8
Comments