System Of A Down - Chop Suey Chords & Tabs

 

Chop Suey Chords & Tabs

System Of A Down Chords & Tabs

Version: 5 Type: Bass Tab 0 ratings
1 star 2 stars 3 stars 4 stars 5 stars
comments

Chop Suey Bass Tab

   
Artist: System Of A Down 
  Title: Chop Suey!                                
  Tabbed By: Quinton Gardiner      This 100%  Cause i saw  
  Tuning: C,G,C,F                       Shavo play it,
  
    Intro             * =   Hold Note
                                       
  F----------------------------------------------
  C----7*----------------------------------------
  G----------------------------------------------  
  C----------------------------------------------

  F----------------------------------------------
  C----------------------------------------------
  G----------------------------------------------
  C----------------------------------------------
        (start this riff when drums come in)
  F----------------------------------------------
  C-------7-7-7-7-7-7-7-7-7---9-9-9-9-9-9-9-9-9--
  G----------------------------------------------
  C----------------------------------------------
  
  F----------------------------------------------      
  C-------5-5-5-5-5-5-5-5-5---3-3-3-3-3-3-3-3-3--
  G----------------------------------------------
  C----------------------------------------------

  F----------------------------------------------
  C-------7-7-7-7-7-7-7-7-7---9-9-9-9-9-9-9-9-9--
  G----------------------------------------------
  C----------------------------------------------

  F----------------------------------------------      
  C-------5-5-5-5-5-5-5-5-5---3-3-3-3-3----------
  G----------------------------------------------
  C----------------------------------------------

  Pre-Verse    Play twice
 
  F----------------------------------------------      
  C----------------------------------------------
  G----------------------------------------------
  C-----8-8-8-8-8-8-8---7-7-7-7-7-7-7------------
                                                        
  F----------------------------------------------      
  C----------------------------------------------
  G----------------------------------------------
  C-----9-9-9-9-9-9-9---12-12-12-12-12-12-12-----
  
            Then play this twice
 
  F----------------------------------------------      
  C----------------------------------------------
  G----------------------------------------------
  C-----8-8-8-8-8-8-8/7-7-7-7-7-7-7--------------
                                                        
  F----------------------------------------------      
  C----------------------------------------------
  G----------------------------------------------
  C-----9-9-9-9-9-9-9/12-12-12-12-12-12-12-------

  
  Verse     Play four times

  F---------------------------------------------
  C---------------------------------------------
  G---------------------------------------------
  C---8-8----8-8-8-8-8-8-8-8--------------------
[ Tab from: http://www.guitartabs.cc/tabs/s/system_of_a_down/chop_suey_btab_ver_5.html ]
  F---------------------------------------------
  C---------------------------------------------
  G---------------------------------------------
  C---7-7----7-7-7-7-7-7-7-7--------------------

  Chorus       Play twice

  F---------------------------------------------
  C---------------------------------------------
  G-----7*------9*------5*------3*--------------
  C---------------------------------------------


 2nd  Pre-Verse    
 
  F----------------------------------------------      
  C----------------------------------------------
  G----------------------------------------------
  C-----8-8-8-8-8-8-8---7-7-7-7-7-7-7------------
                                                        
  F----------------------------------------------      
  C----------------------------------------------
  G----------------------------------------------
  C-----9-9-9-9-9-9-9---12-12-12-12-12-12-12-----
 
  F----------------------------------------------
  C----------------------------------------------
  G----------------------------------------------
  C-----12-12-12-12-12-12-12-12-12-12-12-12------

Verse     Play four times

  F---------------------------------------------
  C---------------------------------------------
  G---------------------------------------------
  C---8-8----8-8-8-8-8-8-8-8--------------------

  F---------------------------------------------
  C---------------------------------------------
  G---------------------------------------------
  C---7-7----7-7-7-7-7-7-7-7--------------------

Chorus       Play four times

  F---------------------------------------------
  C---------------------------------------------
  G-----7*------9*------5*------3*--------------
  C---------------------------------------------
  
  Bridge    Play four times
 
  F----------------------------------------------      
  C----------------------------------------------
  G----------------------------------------------
  C-----8-8-8-8-8-8-8---7-7-7-7-7-7-7------------
                                                        
  F----------------------------------------------      
  C----------------------------------------------
  G----------------------------------------------
  C-----9-9-9-9-9-9-9---12-12-12-12-12-12-12-----

  Then play this twice
 
  F----------------------------------------------      
  C----------------------------------------------
  G----------------------------------------------
  C-----8-8-8-8-8-8-8/7-7-7-7-7-7-7--------------
                                                        
  F----------------------------------------------      
  C----------------------------------------------
  G----------------------------------------------
  C-----9-9-9-9-9-9-9/12-12-12-12-12-12-12-------
  

   Chorus       Play six times

  F---------------------------------------------
  C---------------------------------------------
  G-----------8*------3*------3*----------------
  C-----7*--------------------------------------
Comments