System Of A Down - Chop Suey Chords & Tabs

 

Chop Suey Chords & Tabs

System Of A Down Chords & Tabs

Version: 4 Type: Bass Tab 0 ratings
1 star 2 stars 3 stars 4 stars 5 stars
comments

Chop Suey Bass Tab

   
System Of A Ddown
Chop Suey!

Tabed By Olli_15

Tunning C,G,C,F           ~hold note

Intro, Verse

Play twice for intro
F----------------------------------------------------
C----------------------------------------------------
G-----------7~---3~-------------------7~---3~--------
C-----7~--------------3~-----0/--7~-------------3~---
     (start when drums come in)
[ Tab from: http://www.guitartabs.cc/tabs/s/system_of_a_down/chop_suey_btab_ver_4.html ]
F-----------------------------------------------------
C-----------------------------------------------------
G-----------------------------------------------------
C----8-7-8-7-----7-6-7-6-----10-9-10-9-----12-10-12-10

Chourus
(wake up, wake up and...)
F------------------------------------------------------
C------------------------------------------------------
G------------------------------------------------------
C----8-7----8-7-8-7----7-6----7-6-7-6----8-7----8-7-8-7
  (repeat this till the verse, you know how it goes)

  Just put things where they fit!
Comments