System Of A Down - Chop Suey Chords & Tabs

 

Chop Suey Chords & Tabs

System Of A Down Chords & Tabs

Version: 10 Type: Bass Tab

Chop Suey Bass Tab

   
Tuning= C,G,C,F

Intro
|-----|-------------|--------------------------|
|-----|-------------|--------------------------|
|-----|----8~-3~----|----8~-3~-----------------|
|-7~--|-7~-------3~-|-7~-------3-3-3-3-3-3-3-3-|

Verse
|-----------------------------------|
|-----------------------------------| x2
|-----------------------------------|
|-777777\666666/999999/121212121212-|

|-----------------------------------|
|-777777\666666/999999/121212121212-| x2
|-----------------------------------|
|-----------------------------------|

|----------------------------------------|
|----------------------------------------|
|----------------------------------------|
|-77-77777766-66666677-77777766-66666677-|

|----------------------------------------|
|----------------------------------------|
|----------------------------------------|
|-77-77777766-66666677-77777766-66666666-|

Chorus
|--------------------------------|
|--------------------------------| x2
|---------8-8-888-3-3-333--------|
|-7-7-777-----------------3~-3/5-|

Verse
|-----------------------------------|
|-----------------------------------| x2
|-----------------------------------|
|-777777\666666/999999/121212121212-|
[ Tab from: http://www.guitartabs.cc/tabs/s/system_of_a_down/chop_suey_btab_ver_10.html ]
|----------|
|----------|
|----------|
|-77777777-|

|----------------------------------------|
|----------------------------------------|
|----------------------------------------|
|-77-77777766-66666677-77777766-66666677-|

|----------------------------------------|
|----------------------------------------|
|----------------------------------------|
|-77-77777766-66666677-77777766-66666666-|

Chorus
|--------------------------------|
|--------------------------------| x3
|---------8-8-888-3-3-333--------|
|-7-7-777-----------------3~-3/5-|

|-----------------------------|
|-----------------------------|
|---------8-8-888-3-3-333-----|
|-7-7-777-----------------3~~-|

Verse
|-----------------------------------|
|-----------------------------------| x4
|-----------------------------------|
|-777777\666666/999999/121212121212-|

|-----------------------------------|
|-777777\666666/999999/121212121212-| x2
|-----------------------------------|
|-----------------------------------|

Outro (chorus)
|--------------------|
|--------------------| x4
|-----8~~-3~~--------|
|-7~~---------3~-3/5-|

|-------------------------------|
|-------------------------------|
|-----8~~-3~~-------------------|
|-7~~---------3-3-3-3-5-7~~~~~~-|