System Of A Down - Chic N Stu Chords & Tabs

 

Chic N Stu Chords & Tabs

System Of A Down Chords & Tabs

Version: 3 Type: Tab 0 ratings
1 star 2 stars 3 stars 4 stars 5 stars
comments

Chic N Stu Tab

   
It's pretty accurate. I got too lazy to tab everything, but I didnt leave out much. 

                               :Chick 'N' Stu:

D-9-9-9-9-9-9-9-9-9-9-9-9-9-9-9-9-9-9-|
A-8-8-8-8-8-8-8-8-8-8-8-8-8-8-8-8-8-8-|     
F-------------------------------------|     
C-------------------------------------|  Repeat as necessary   
G-------------------------------------|     
C-------------------------------------|

D-------------------------------------|
A-------------------------------------|     
F-6-6-6-6-6-6-6-6-6-6-6-6-6-6-6-6-6-6-| 
C-6-6-6-6-6-6-6-6-6-6-6-6-6-6-6-6-6-6-|  Repeat as necessary   
G-4-4-4-4-4-4-4-4-4-4-4-4-4-4-4-4-4-4-|     
C-------------------------------------|
[ Tab from: http://www.guitartabs.cc/tabs/s/system_of_a_down/chic_n_stu_tab_ver_3.html ]
D----------------------------------------------------------------|
A----------------------------------------------------------------|   
F--6-7-9-7-6-7-9-7-6-7-9-7---------------------------------------|
C----------------------------------------------------------------|     
G-----------------------------4-5-7-5-4-5-7-5-4-5-7-5------------|     
C----------------------------------------------------------------|
  pm =========================================================


D-------------------------------------|
A-------------------------------------|     
F-6-6-7-6-6-7-6-6-7-6-6-7-6-6-7-6-6-7-| 
C-6-6-7-6-6-7-6-6-7-6-6-7-6-6-7-6-6-7-|  Repeat as necessary   
G-4-4-5-4-4-5-4-4-5-4-4-5-4-4-5-4-4-5-|     
C-------------------------------------|

Let me know what you guys think.
Email me at Monkeybizkit2001@yahoo.com
Comments