System Of A Down - Chic N Stu Chords & Tabs

 

Chic N Stu Chords & Tabs

System Of A Down Chords & Tabs

Version: 1 Type: Bass Tab 0 ratings
1 star 2 stars 3 stars 4 stars 5 stars
comments

Chic N Stu Bass Tab

   
-=Chic 'n' Stu=- System of a down
================
Tabs by Javier Rodriguez

A:
F|-----------------|
C|-----------------|
G|-4^5-4^5-4^5-4^5-|
C|-----------------|

B:
F|-----------------|
C|-----------------|
G|-4-5-4-5-4-5-4-5-|
C|-----------------|

C:
F|-----------|--------------------------------|
C|---guitar--|----6-7-9-7--6-7-9-7--6-7-9-7-6-|
G|-4---------|-4------------------------------|
C|-----------|--------------------------------|

D:
F|------------------------------|
C|------------------------------|
G|-4--4-5-4--4-5-4--4-5-4-5-4-5-|
C|------------------------------|
[ Tab from: http://www.guitartabs.cc/tabs/s/system_of_a_down/chic_n_stu_btab.html ]
E:
F|--------|------------------------------|--------|------------------------------|
C|--------|------------------------------|--------|------------------------------|
G|-6------|-4--4-5-4--4-5-4--4-5-4-5-4-5-|-6------|-4--4-5-4--4-5-4--4-5-4-5-4-5-|
C|--------|------------------------------|--------|------------------------------|

F|--------|--------|--------|--------|--------|--------|------------------------|
C|--------|--------|--------|--------|--------|--------|------------------------|
G|-6------|-6------|-4--4-4-|-6--6-6-|-4--4-4-|-6--6-6-|--6-6-6-6-6-6-6-6-6-6-6-|
C|--------|--------|--------|--------|--------|--------|------------------------|

Order:
=====

A: X4
B: X8
C:
D: X4
guitar only
A: X2
B: X8
C:
D: X6
E:
B: X8
C:
D: X6
Comments