System Of A Down - Byob Chords & Tabs

 

Byob Chords & Tabs

System Of A Down Chords & Tabs

Version: 1 Type: Tab 7 ratings
1 star 2 stars 3 stars 4 stars 5 stars
comments

Byob Tab

a real kick ass song to play, believe that it is mostly correct

Intro
Up, Down picking, k means kill

Intro

Eb------------------------------------------|
Bb------------------------------------------|
Gb------------------------------------------|
Db------------------------------------------|                    Repeat 3 times
Ab-7p-------------------7p0---8p0---7p------|
Db-----0-0-0-0-0-0--------------------------|

Intro pt. 2

Eb----------------------|
Bb----------------------|
Gb----------------------|
Db----------------------|                Repeat 6 times
Ab--7po---8p0---7p------|
Db----------------------|

Riff 1

Eb-----------------------------------------------------------------------------------------------------|
Bb-----------------------------------------------------------------------------------------------------|
Gb------------------------------------------9--10--12--------------------------------------------------|
Db------------------------------------------9--10--12--------------------------------------------------|
Ab------------------------------------------7--8---10--------------------------------------------------|
Db---0-7-0-8-0-7-0-8-0-7-0-7-0-8-0---------------------0-7-0-8-0-7-0-8-0-7-0-7-0-8-0-------------------|

Riff 1 Con’t

Eb----------------|
Bb----------------|
Gb--12--10---9----|
Db--12--10---9----|       Repeat 1 time
Ab--10--8----7----|
Db----------------|









Riff 2

Eb-----------------------------------------------------------------------------------|
Bb-----------------------------------------------------------------------------------|
Gb---------------------------------------------------10-------------------12--10--9--|
Db---------------------------------------------------10-------------------12--10--9--|
Ab---------------------------------------------------8--------------------10--8---7--|
Db--7-0-0-8-0-0-8-0-0-8-0-0-7-0-0-8-0-0-7------7-0-0---8-0-7-0-0-8-0-0---------------|

Repeat Riff 2 once

Riff 3

Eb--------------------------------|
Bb--------------------------------|
Gb--------------------------------|
Db--------------------------------|   Repeat 3 times
Ab--------------------------------|
Db--7-0-0-8-0-0-7-0-0-8-0-0-------|

Riff 3 con’t

Eb--------------------------|
Bb--------------------------|
Gb---------------------10---|
Db---------------------10---|   
Ab---------------------8----|
Db--7-0-0-8-0-0-7-----------|

Riff 3 Con’t

Eb--------------------------------|
Bb--------------------------------|
Gb--------------------------------|
Db--------------------------------|   Repeat 3 times
Ab--------------------------------|
Db--7-0-0-8-0-0-7-0-0-8-0-0-------|








Pre-Chorus

Eb------------------------------------------------------------------------------------------------|
Bb------------------------------------------------------------------------------------------------|
Gb------------------------------------------------------------------------------------------------|
Db--5---3---2---2---0---0k---0k---------------------------------------5k---5---------3/2-0--------|
Ab--5---3---2---2---0---0k---0k---0---2---3---5---3---2---0---2---0---3k---3--0-3-5---------------|
Db--5---3---2---2---0---0k---0k---0---2---3---5---3---2---0---2---0-------------------------------|

Pre-Chorus con’t
[ Tab from: http://www.guitartabs.cc/tabs/s/system_of_a_down/byob_tab.html ]
Eb------------------------------------------------------------------------|
Bb------------------------------------------------------------------------|
Gb------------------------------------------------------------------------|
Db--3---2---0k---0--------------------------------------------------------|
Ab--3---2---0k---0---0---5---7---8---7---5---3---5---3---2----------------|
Db--3---2---0k---0---0---5---7---8---7---5---3---5---3---2---10p----------|


Chorus palm muted

Eb-------------------------------------------------------------------------------------------------------|
Bb-------------------------------------------------------------------------------------------------------|
Gb-------------------------------------------------------------------------------------------------------|
Db-------------------------------------------------------------------------------------------------------| 
Ab------------------------3-3-3-3-3-3-3-3-3------------0--5--7---8--7--5--3--5--3--2---------------------|
Db--0-0-0-0-0-0-0-0-0-----------------------0-0-0-0----0--5--7---8--7--5--3--5--3—-2--10p----------------|

Repeat chorus once

Riff 4

Eb-------------------------------|
Bb-------------------------------|
Gb-------------------------------|
Db-------------------------------|   Repeat 3 times
Ab-------------------------------|
Db--7-0-0-8-0-0-7-0-0-8-0-0------|








Riff 4 con’t

Eb--------------------|
Bb--------------------|
Gb----------------10--|
Db----------------10--|
Ab----------------8---|
Db--7-0-8-0-7---------|


Riff 4 con’t

Eb-------------------------------|
Bb-------------------------------|
Gb-------------------------------|
Db-------------------------------|   Repeat once
Ab-------------------------------|
Db--7-0-0-8-0-0-7-0-0-8-0-0------|


Riff 4 con’t

Eb------------------|
Bb------------------|
Gb--12--10---9------|
Db--12--10---9------|
Ab--10---8---7------|
Db------------------|

Play riff 2


Riff 5

Eb------------------------------------------------------------------------|
Bb------------------------------------------------------------------------|
Gb-----------------------------------------10-----------------------------|
Db-----------------------------------------10-----------------------------|
Ab-----------------------------------------8------------------------------|
Db--7-0-0-8-0-0-7-0-0-8-0-0-7-0-0-8-0-0--------7-0-0-8-0-0-7-0-0-8-0-0----|


Play Pre-chorus and then chorus




Riff 6 at 2:16

Eb------------x---x-----------------------x---x------------------|
Bb------------x---x-----------------------x---x------------------|
Gb------------x---x-----------------------x---x------------------|
Db------------x---x-----------------------x---x------------------|
Ab------------x---x--10-------------------x---x--10--------------|
Db--5--7-7----x---x--10--7--7-7--5--7-7---x---x--10--8--8-8------|


Riff 7

Eb----------------------------------------------------------------------------------------------|
Bb----------------------------------------------------------------------------------------------|
Gb----------------------------------------------------------------------------------------------|
Db----------------------------------------------------------------------------------------------| 
Ab--12--12-12-12-12-12---8--8-8-8-8-8---0--0-0-0-0-0-0---7p0-0--8p0-0-0--7p0--------------------|
Db--12--12-12-12-12-12---8--8-8-8-8-8-----------------------------------------------------------|

Repeat riff 7 once

Riff 8

Eb-------------------------------------------------|
Bb-------------------------------------------------|
Gb-------------------------------------------------|
Db-------------------------------------------------|  Repeat once
Ab--0---0-0-0-0-0-0---7p0-0---8p0-0---7p0----------|
Db-------------------------------------------------|


Comments