System Of A Down - Byob Chords & Tabs

 

Byob Chords & Tabs

System Of A Down Chords & Tabs

Version: 1 Type: Bass Tab 0 ratings
1 star 2 stars 3 stars 4 stars 5 stars
comments

Byob Bass Tab

   
Band- System Of A Down
Song- BYOB

 RIFF 1
Gb|----------------------------------------------------------||
Db|----------------------------------------------------------||
Ab|--------------------------------------------------7--8-10-||
Db|0-0-0-7-0-0-8-0-0-7-0-0-8-0-0-7-0-0-0-7-0-0-8-0-0---------||


Gb|----------------------------------------------------------||
Db|----------------------------------------------------------||
Ab|--------------------------------------------------10--8-7-||
Db|0-0-0-7-0-0-8-0-0-7-0-0-8-0-0-7-0-0-0-7-0-0-8-0-0---------||

  RIFF 2
Gb|-----------------------------------------||
Db|-----------------------------------------||
Ab|--------------------------------------8--||
Db|7-0-0-8-0-0-7-0-0-8-0-0-7-0-0-8-0-0-7----||


Gb|-----------------------------------------||
Db|-----------------------------------------||  Repeat
Ab|------------------------10--8-7----------||
Db|7-0-0-8-0-0-7-0-0-8-0-0------------------||

   RIFF 3
Gb|------------------------------------------------||
Db|------------------------------------------------||
Ab|------------------------------------------------||
Db|7-0-0-8-0-0-7-0-0-8-0-0-7-0-0-8-0-0-7-0-0-8-0-0-||


Gb|-----------------------------------------------||
Db|-----------------------------------------------||
Ab|--------------------------------------8--------||
Db|7-0-0-8-0-0-7-0-0-8-0-0-7-0-0-8-0-0-7----------||


Gb|------------------------------------------------||
Db|------------------------------------------------||
Ab|------------------------------------------------||
Db|7-0-0-8-0-0-7-0-0-8-0-0-7-0-0-8-0-0-7-0-0-8-0-0-||


Gb|------------------------------------||
Db|------------------------------------||
Ab|------------------------------------||
Db|7-0-0-8-0-0-7-0-0-8-0-0-5--3--2-3-2-||

  PRE-CHORUS
Gb|------------------------------------------||
Db|--------------------------------3-2-0-----||
Ab|----------------------3-3-0-3-0-----------||
Db|0--0--0-2-3-5-3-2-0-2-----------------3-2-||


Gb|-----------------------------------------||
Db|-----------------------------------------||
Ab|-----------------------------------------||
Db|0--0--0-5-7-8-7-5-3-5-3-2----------------||

  CHORUS
Gb|---------------------------------------||
Db|---------------------------------------||
Ab|------------------------3-3-3--3--3-3--||
Db|0-0-0---0---0-0--0-0-0-----------------||

Gb|---------------------------------------------||
Db|---------------------------------------------||  Repeat
Ab|---------------------------------------------||
Db|0-0-0---0-----5-7-8-7-5-3-5-3-2--------------||

  RIFF 3
Gb|------------------------------------------------||
Db|------------------------------------------------||
Ab|------------------------------------------------||
Db|7-0-0-8-0-0-7-0-0-8-0-0-7-0-0-8-0-0-7-0-0-8-0-0-||

Gb|-----------------------------------------------||
Db|-----------------------------------------------||
Ab|--------------------------------------8--------||
Db|7-0-0-8-0-0-7-0-0-8-0-0-7-0-0-8-0-0-7----------||


Gb|------------------------------------------------||
Db|------------------------------------------------||
Ab|------------------------------------------------||
Db|7-0-0-8-0-0-7-0-0-8-0-0-7-0-0-8-0-0-7-0-0-8-0-0-||


Gb|------------------------------------||
Db|------------------------------------||
Ab|------------------------10--8-7-----||
Db|7-0-0-8-0-0-7-0-0-8-0-0-------------||

  RIFF 2
Gb|-----------------------------------------||
Db|-----------------------------------------||
Ab|--------------------------------------8--||
Db|7-0-0-8-0-0-7-0-0-8-0-0-7-0-0-8-0-0-7----||


Gb|-----------------------------------------||
Db|-----------------------------------------||  Repeat
Ab|------------------------10--8-7----------||
Db|7-0-0-8-0-0-7-0-0-8-0-0------------------||

  PRE-CHORUS
Gb|------------------------------------------||
Db|--------------------------------3-2-0-----||
Ab|----------------------3-3-0-3-0-----------||
Db|0--0--0-2-3-5-3-2-0-2-----------------3-2-||

[ Tab from: http://www.guitartabs.cc/tabs/s/system_of_a_down/byob_btab.html ]
Gb|-----------------------------------------||
Db|-----------------------------------------||
Ab|-----------------------------------------||
Db|0--0--0-5-7-8-7-5-3-5-3-2----------------||

  CHORUS
Gb|---------------------------------------||
Db|---------------------------------------||
Ab|------------------------3-3-3--3--3-3--||
Db|0-0-0---0---0-0--0-0-0-----------------||

Gb|---------------------------------------------||
Db|---------------------------------------------||  Repeat
Ab|---------------------------------------------||
Db|0-0-0---0-----5-7-8-7-5-3-5-3-2--------------||

  RIFF 4
Gb|-------------------------------------------||
Db|-------------------------------------------||  Repeat 8x
Ab|-------------------------------------------||
Db|7-7-7-7-7-7-7-7-10-7-7-8-7-7-5-------------||

  RIFF 5
Gb|-----------------------------------------------------||
Db|-----------------------------------------------------||  Repeat 3x
Ab|5-5-5-5-1-1-1-1-0-0-0-0-7-0-0-8-0-0-7-0-0------------||
Db|-----------------------------------------------------||

  RIFF 6
Gb|---------------------------------------------||
Db|---------------------------------------------||  Repeat 3x
Ab|0-0-0-0-0-0-0-0-7-0-0-8-0-0-7-0-0------------||
Db|---------------------------------------------||

  RIFF 3
Gb|------------------------------------------------||
Db|------------------------------------------------||
Ab|------------------------------------------------||
Db|7-0-0-8-0-0-7-0-0-8-0-0-7-0-0-8-0-0-7-0-0-8-0-0-||

Gb|-----------------------------------------------||
Db|-----------------------------------------------||
Ab|--------------------------------------8--------||
Db|7-0-0-8-0-0-7-0-0-8-0-0-7-0-0-8-0-0-7----------||


Gb|------------------------------------------------||
Db|------------------------------------------------||
Ab|------------------------------------------------||
Db|7-0-0-8-0-0-7-0-0-8-0-0-7-0-0-8-0-0-7-0-0-8-0-0-||


Gb|------------------------------------||
Db|------------------------------------||
Ab|------------------------10--8-7-----||
Db|7-0-0-8-0-0-7-0-0-8-0-0-------------||

  RIFF 2
Gb|-----------------------------------------||
Db|-----------------------------------------||
Ab|--------------------------------------8--||
Db|7-0-0-8-0-0-7-0-0-8-0-0-7-0-0-8-0-0-7----||


Gb|-----------------------------------------||
Db|-----------------------------------------||  Repeat
Ab|------------------------10--8-7----------||
Db|7-0-0-8-0-0-7-0-0-8-0-0------------------||

  PRE-CHORUS
Gb|------------------------------------------||
Db|--------------------------------3-2-0-----||
Ab|----------------------3-3-0-3-0-----------||
Db|0--0--0-2-3-5-3-2-0-2-----------------3-2-||


Gb|-----------------------------------------||
Db|-----------------------------------------||  Repeat
Ab|-----------------------------------------||
Db|0--0--0-5-7-8-7-5-3-5-3-2----------------||

  CHORUS
Gb|---------------------------------------||
Db|---------------------------------------||
Ab|------------------------3-3-3--3--3-3--||
Db|0-0-0---0---0-0--0-0-0-----------------||

Gb|---------------------------------------------||
Db|---------------------------------------------||  Repeat
Ab|---------------------------------------------||
Db|0-0-0---0-----5-7-8-7-5-3-5-3-2--------------||

RIFF 5
Gb|-----------------------------------------------------||
Db|-----------------------------------------------------||  Repeat 3x
Ab|5-5-5-5-1-1-1-1-0-0-0-0-7-0-0-8-0-0-7-0-0------------||
Db|-----------------------------------------------------||

  RIFF 6
Gb|---------------------------------------------||
Db|---------------------------------------------||
Ab|0-0-0-0-0-0-0-0-7-0-0-8-0-0-7-0-0------------||
Db|---------------------------------------------||

THAN A LITTLE BREAK FOR GUITAR (TIME: 4:01) START AFTER THAT

Riff 7
Gb|------------------------------------------------------||
Db|------------------------------------------------------||  Repeat 4x
Ab|0-0-0-0-7-0-0-0-0-0-0-0-0-7-0-0-8-0-0-7-0-0-----------||
Db|------------------------------------------------------||
Comments