System Of A Down - Bubbles Chords & Tabs

 

Bubbles Chords & Tabs

System Of A Down Chords & Tabs

Version: 2 Type: Bass Tab 0 ratings
1 star 2 stars 3 stars 4 stars 5 stars
comments

Bubbles Bass Tab

Bubbles by System of a Down
Tabbed by: Jim Campbell
*The times indicated in the parenthesis are not exact but close enough!

F:----------|-----------------------------------|
C:----------|-----------------------------------|
G:----------|-----------------------------------|
C:-6-6-6-6--|-3-5-5-5--3-5-5-5--3-5-5-5--3-5-5-5|

-------------------------------------|
-------------------------------------|
-------------------------------------|
--3-5-5-5--3-5-5-5--3-5-5-5--6-6-6-6-|

F:-----------------------------------|-------------------------------------|
C:-----------------------------------|-------------------------------------|
G:-----------------------------------|-------------------------------------|
C:-3-5-5-5--3-5-5-5--3-5-5-5--3-5-5-5|--3-5-5-5--3-5-5-5--3-5-5-5--6-6-6-6-|

(:11)
F:-------------------------------|
C:-------------------------------|(2x)
G:-------------------------------|
C:--3-5--5-3--5--3-5--5-6-6-6-6--|

(:17)
F:-------------------------------|
C:--3-5--5-3--5--3-5--5-6-6-6-6--|(4x)
G:-------------------------------|
C:-------------------------------|

(:28)
F:-------------------------------------|-------------------------------------|
C:-------------------------------------|-------------------------------------|
G:-------------------------------------|-------------------------------------|
C:--3-5-5-5--3-5-5-5--3-5-5-5--6-6-6-6-|--3-5-5-5--3-5-5-5--3-5-5-5--6-6-6-6-|
[ Tab from: http://www.guitartabs.cc/tabs/s/system_of_a_down/bubbles_btab_ver_2.html ]
(:34)
F:-------------------------------|
C:-------------------------------|(2x)
G:-------------------------------|
C:--3-5--5-3--5--3-5--5-6-6-6-6--|

REST

(:42)
F:-------------------------------|
C:--3-5--5-3--5--3-5--5-6-6-6-6--|(4x)
G:-------------------------------|
C:-------------------------------|

(:53)
F:-------------------------------------|-------------------------------------|
C:-------------------------------------|-------------------------------------|
G:-------------------------------------|-------------------------------------|
C:--3-5-5-5--3-5-5-5--3-5-5-5--6-6-6-6-|--3-5-5-5--3-5-5-5--3-5-5-5--6-6-6-6-|

(:59)
F:-------------------------------|
C:-------------------------------|(4x)
G:-------------------------------|
C:--3-5--5-3--5--3-5--5-6-6-6-6--|

(1:11)
F:---------------|
C:---------------|(11x)
G:---------------|
C:--3-5--5-3--5--|                             

REST

(1:28)
F:---------------|
C:---------------|(7x)
G:---------------|
C:--3-5--5-3--5--|

REST

(1:39)
F:-------------------------------------|-------------------------------------|
C:-------------------------------------|-------------------------------------|
G:-------------------------------------|-------------------------------------|
C:--3-5-5-5--3-5-5-5--3-5-5-5--6-6-6-6-|--3-5-5-5--3-5-5-5--3-5-5-5--6-6-6-6-|

(1:45)
F:-------------------------------|
C:-------------------------------|(4x)
G:-------------------------------|
C:--3-5--5-3--5--3-5--5-6-6-6-6--|

This song is intense from beginning to end
I recommend that if you start a band....cover this song!!System
is perhaps one of the greatest bands I've heard! EAsy song wont you think?
Comments