System Of A Down - Bubbles Chords & Tabs

 

Bubbles Chords & Tabs

System Of A Down Chords & Tabs

Version: 1 Type: Bass Tab 1 rating
1 star 2 stars 3 stars 4 stars 5 stars
comments

Bubbles Bass Tab

   
-=Bubbles=-System of a down
===========

 tabs by Javier Rodríguez

A:
F|---------|------------------------------------|------------------------------------|
C|---------|------------------------------------|------------------------------------|
G|---------|------------------------------------|------------------------------------|
C|-6-6-6-6-|-3-5-5-5--3-5-5-5--3-5-5-5--3-5-5-5-|-3-5-5-5--3-5-5-5--3-5-5-5--6-6-6-6-|
[ Tab from: http://www.guitartabs.cc/tabs/s/system_of_a_down/bubbles_btab.html ]
F|------------------------------------|------------------------------------|
C|------------------------------------|------------------------------------|
G|------------------------------------|------------------------------------|
C|-3-5-5-5--3-5-5-5--3-5-5-5--3-5-5-5-|-3-5-5-5--3-5-5-5--3-5-5-5--6-6-6-6-|

B:
F|------------------------------|
C|------------------------------|
G|------------------------------|
C|-3-5---5-3--5---3-5---5-6-6-6-|

C:
F|------------------------------------|
C|------------------------------------|
G|------------------------------------|
C|-3-5-5-5--3-5-5-5--3-5-5-5--6-6-6-6-|

D:
F|---|
C|---|
G|---|
C|-5-|

E:
F|------------|
C|------------|
G|------------|
C|-3-8--5-6-5-|

Order:
=====

A:
B: X6
C: X2
B: X2
C: X2
B: X4
C: X2
B: X4
E: X11
guitar solo
E: X8
guiatr solo
C: X2
B: X4
Comments