System Of A Down - Bounce Chords & Tabs

 

Bounce Chords & Tabs

System Of A Down Chords & Tabs

Version: 9 Type: Tab 0 ratings
1 star 2 stars 3 stars 4 stars 5 stars
comments

Bounce Tab

   
alright this is the 100% correct version right from the tabs book.

Song: Bounce
Artist: System Of A Down
Album: Toxicity
Tabber: MutaviMulac77@aol.com

e-mail me with questions or comments, i have the whole toxicity tabs book,
if you need any other tabs from it, just e-mail me.

Intro/Chorus
D----------------------------------------------------------||
A----------------------------------------------------------||
F----------------------------------------------------------||
C----------------------------------------------------------||
G----8-7-7-8-8-7-7-8-8-7-7-8-8-0---------------------------||
C----8-7-7-8-8-7-7-8-8-7-7-8-8-0---------------------------||

Verse A
D----------------------------------------------------------||
A----------------------------------------------------------||
F----------------------------------------------------------||
C-----7-8----7-8----7-8----7-8----6-7----6-7----6-7----6-7-||
G---5------5------5------5------4------4------4------4-----||
C----------------------------------------------------------||

Then The Chorus

Verse B
D----------------------------------------------------------||
A----------------------------------------------------------||
F-----9-10----9-10----9-10----9-10---9-8---9-8---9-8---9-8-||
C---7-------7-------7-------7------6-----6-----6-----6-----||
G----------------------------------------------------------||
C----------------------------------------------------------||

Then the Chorus Again

Solo/Interlude
D----------------------------------------------------------||
A----------------------------------------------------------||
F-----10---10---10---10---9---9---9---9---10---10---10---10||
C---8----8----8----8----8---8---8---8---8----8----8----8---||
G----------------------------------------------------------||
C----------------------------------------------------------||

D-------------------------||
A-------------------------||
F-----9---9---9---9-------||
C---8---8---8---8---------||
G-------------------------||
C-------------------------||
[ Tab from: http://www.guitartabs.cc/tabs/s/system_of_a_down/bounce_tab_ver_9.html ]
D----------------------------------------------------------||
A----------------------------------------------------------||
F----------------------------------------------------------||
C----------------------------------------------------------||
G--8-8-0-8-8-0-8-8-0-8-8-0-8-8-0-8-8-0-8-8-0-8-8-0-8-8-0---||
C--8-8-0-8-8-0-8-8-0-8-8-0-8-8-0-8-8-0-8-8-0-8-8-0-8-8-0---||
  |---------------------P.M-----------------------------|

D----------------------------------------------------------||
A----------------------------------------------------------||
F----------------------------------------------------------||
C----------------------------------------------------------||
G--8-8-0-8-8-0-8-8-0-8-8-0-8-8-0-8-8-0-8-8-0---------------||
C--8-8-0-8-8-0-8-8-0-8-8-0-8-8-0-8-8-0-8-8-0---------------||
  |-------------------P.M-------------------|


D----------------------------------------------------------||
A----------------------------------------------------------||
F-----10----10----10----10-----9-----9-----9-----9---------||
C------8-----8-----8-----8-----8-----8-----8-----8---------||
G--8-8---8-8---8-8---8-8---8-8---8-8---8-8---8-8-----------||
C--8-8---8-8---8-8---8-8---8-8---8-8---8-8---8-8-----------||
PM ---   ---   ---   ---   ---   ---   ---   ---

D----------------------------------------------------------||
A----------------------------------------------------------||
F-----10----10----10----10-----9-----9-----9-----9---------||
C------8-----8-----8-----8-----8-----8-----8-----8---------||
G--8-8---8-8---8-8---8-8---8-8---8-8---8-8---8-8-----------||
C--8-8---8-8---8-8---8-8---8-8---8-8---8-8---8-8-----------||
PM ---   ---   ---   ---   ---   ---   ---   ---

D----------------------------------------------------------||
A----------------------------------------------------------||
F----------------------------------------------------------||
C----------------------------------------------------------||
G----------------------------------------------------------||
C--8-8-0-8-8-0-8-8-0-8-8-0-8-8-0-8-8-0-8-8-0---------------||
    This is the part with the weird background lyrics.

Then The Chorus One Last Time

And that's it.  It's a pretty easy song to play.
Comments