System Of A Down - Bounce Chords & Tabs

 

Bounce Chords & Tabs

System Of A Down Chords & Tabs

Version: 6 Type: Tab 0 ratings
1 star 2 stars 3 stars 4 stars 5 stars
comments

Bounce Tab

This song is like super freakin easy but if you feel like i fucked up in 
any way don't hold out correct me. Email me at elite_13@msn.com 

D-------------------------------------------------------
A-------------------------------------------------------
F-------------------------------------------------------
C----0-887788778877880----------------------------------
G----0-887788778877880----------------------------------
C----0-887788778877880----------------------------------

D-------------------------------------------------------
A-------------------------------------------------------
F-------------------------------------------------------
C-------------------------------------------------------
G---13-12-13--13-12-13--13-12-13--13-12-13--12-11-12----
C-------------------------------------------------------

D-------------------------------------------------------
A-------------------------------------------------------
F-------------------------------------------------------
C-------------------------------------------------------
G---12-11-12--12-11-12--12-11-12------------------------
C-------------------------------------------------------

Back to The First Part (chorus)
[ Tab from: http://www.guitartabs.cc/tabs/s/system_of_a_down/bounce_tab_ver_6.html ]
D-------------------------------------------------------
A-------------------------------------------------------
F-----10--10--10--10---9---9---9---9--------------------
C----12--12--12--12--11--11--11--11---------------------
G--12---12--12--12--11--11--11--11----------------------
C-------------------------------------------------------

Chorus

Bridge-
D-------------------------------------------------------
A-------------------------------------------------------
F--10-10-10-10-9-9-9-9----------------------------------
C-8--8--8--8--7-7-7-7-----------------------------------
G-------------------------------------------------------
C-------------------------------------------------------
Palm Muted
D-------------------------------------------------------
A-------------------------------------------------------
F-------------------------------------------------------
C--8-8-0------------------------------------------------
G--8-8-0------------------------------------------------
C--8-8-0------------------------------------------------
Zero's PAlm Muted
D--------------------------------------------------------
A--------------------------------------------------------
F-----10--------9----------------------------------------
C--0-0-8----0-0-7----------------------------------------
G--0-0------0-0------------------------------------------
C--0-0------0-0------------------------------------------
Chorus
Thats it also i got lazy on all the details like how many times but youll 
figure it out
Comments