System Of A Down - Bounce Chords & Tabs

 

Bounce Chords & Tabs

System Of A Down Chords & Tabs

Version: 5 Type: Tab 0 ratings
1 star 2 stars 3 stars 4 stars 5 stars
comments

Bounce Tab

   
Song: Bounce
Artist: System Of A Down
Album Toxicity
Tabbed by: Adam

Guitar tuning - C.G.C.F.A.D.

INTRO (play x8)         VERSE 1. (play x2)  

D:-----------------:  D:---------------------------:
A:-----------------:  A:---------------------------:
F:----------------4:  F:--45-45-45-45--34-34-34-34-:
C:-5-445544554455-2:  C:-2--2--2--2---1--1--1--1---:
G:-3-223322332233--:  G:---------------------------:
C:-----------------:  C:---------------------------:
                       *Palm Mute 

CHORUS which is same as intro (x4)

Verse 2 
D:------------------------------------------:
A:------------------------------------------:
F:--1112-1112-1112-1112-1110-1110-1110-1110-:
C:-9----9----9----9----8----8----8----8-----:
G:------------------------------------------:
C:------------------------------------------:
 *Palm Mute

Chorus (x4)
[ Tab from: http://www.guitartabs.cc/tabs/s/system_of_a_down/bounce_tab_ver_5.html ]
Interlude (x2)
D:-----------------------------------:
A:-----------------------------------:
F:---12--12--12--12--11--11--11--11--:
C:-10--10--10--10--10--10--10--10----:
G:-----------------------------------:
C:-----------------------------------:
 *Let Ring

(X2)
D:-----------------------------------------------------:
A:-----------------------------------------------------:
F:-----------------------------------------------------:
C:-----------------------------------------------------:
G:-1010----1010----1010----1010----99---99---99---99---:
C:-8-8--0--8-8--0--8-8--0--8-8--0--77-0-77-0-77-0-77-0-:

(X2)
D:---------------------------------:
A:---------------------------------:
F:--12--12--12--12--11--11--11--11-:
C:--10--10--10--10--10--10--10--10-:
G:---------------------------------:
C:00--00--00--00--00--00--00--00---:

Bass & Weird Noises 

Back to Chorus (x4)

That's it.. Nice and easy...
Comments