System Of A Down - Bounce Chords & Tabs

 

Bounce Chords & Tabs

System Of A Down Chords & Tabs

Version: 4 Type: Tab 0 ratings
1 star 2 stars 3 stars 4 stars 5 stars
comments

Bounce Tab

Song: Bounce
Artist: System of a Down
Album: Toxicity
Tuning: Drop-D, down 1 step, CGCFAD
I am positive this tab is 100% right
---------------------------------------
pm. – palm mute
---------------------------------------
Rhy. Fig. 1,dist.,0:00,0:30,0:50,1:42:
d|---------------------------------|
A|---------------------------------|
F|---------------------------------|x8
C|---------------------------------|
G|-8---7-7-8-8-7-7-8-8-7-7-8-8-0---|
C|-8---7-7-8-8-7-7-8-8-7-7-8-8-0---|
pm     . . . . . . . . . . . .

Riff A,dist.,0:19:
d|-----------------------------------------------------------------|
A|-----------------------------------------------------------------|
F|-----------------------------------------------------------------|x2
C|---7-8-----7-8-----7-8-----7-8-----6-7-----6-7-----6-7-----6-7---|
G|-5-------5-------5-------5-------4-------4-------4-------4-------|
C|-----------------------------------------------------------------|
pm . . .   . . .   . . .   . . .   . . .   . . .   . . .   . . .

Verse,dist.,0:40:
d|---------------------------------------------------------------------
A|---------------------------------------------------------------------
F|---9-10-----9-10-----9-10-----9-10-----8-9-----8-9-----8-9-----8-9---
C|-7--------7--------7--------7--------6-------6-------6-------6-------
G|---------------------------------------------------------------------
C|---------------------------------------------------------------------
pm . . .    . . .    . . .    . . .    . . .   . . .   . . .   . . . 

d|---------------------------------------------------------------------|
A|---------------------------------------------------------------------|
F|---9-10-----9-10-----9-10-----9-10-----8-9-----8-9-----8-9-----8-9---|
C|-7--------7--------7--------7--------6-------6-------6-------6-------|
G|---------------------------------------------------------------------|
C|---------------------------------------------------------------------|
                                    pm . . .   . . .   . . .   . . .            
[ Tab from: http://www.guitartabs.cc/tabs/s/system_of_a_down/bounce_tab_ver_4.html ]
Interlude,dist.,1:01:
d|---------------------------------------------------------------------|
A|---------------------------------------------------------------------|
F|---------------------------------------------------------------------|x2
C|-----10-------10-------10-------10-------9-------9-------9-------9---|
G|-8--------8--------8--------8--------8-------8-------8-------8-------|
C|---------------------------------------------------------------------|

dist.,1:11:
d|-----------------|
A|-----------------|
F|-----------------|x4
C|-----------------|
G|-8-8-0---8-8-0---|
C|-8-8-0---8-8-0---|
pm . . .   . . .

Rhy. Fig. 2,dist.,1:22:
d|---------------------------------------------------------------------|
A|---------------------------------------------------------------------|
F|-----10-------10-------10-------10-------9-------9-------9-------9---|x2
C|------8--------8--------8--------8-------8-------8-------8-------8---|
G|-8-8------8-8------8-8------8-8------8-8-----8-8-----8-8-----8-8-----|
C|-8-8------8-8------8-8------8-8------8-8-----8-8-----8-8-----8-8-----|

Bridge,dist.,1:32:
d|-----------------------------------------------------------------
A|-----------------------------------------------------------------
F|-----------------------------------------------------------------
C|-----------------------------------------------------------------
G|-----------------------------------------------------------------
C|-8-8-0---8-8-0---8-8-0---8-8-0---8-8-0---8-8-0---8-8-0---8-8-0---
 pm.             pm.             pm.             pm.         
d|---------------------------------------------------------------------|
A|---------------------------------------------------------------------|
F|---------------------------------------------------------------------|
C|---------------------------------------------------------------------|
G|---------------------------------------------------------------------|
C|-8-8-0---8-8-0---8-8-0---8-8-0---7-7-11---7-7-11---7-7-11---7-7-11---|
 pm.             pm.               

That’s the whole song.  
Comments