System Of A Down - Bounce Chords & Tabs

 

Bounce Chords & Tabs

System Of A Down Chords & Tabs

Version: 2 Type: Tab 0 ratings
1 star 2 stars 3 stars 4 stars 5 stars
comments

Bounce Tab

   
Song: Bounce
Band: System of a Down
Tabbed By: Adam

Tuning for this version is (D A D G B E)

Intro - Heavy Palm Mute
|-------------------------------
|-------------------------------
|-------------------------------  X8
|-------------------------------
|-8--7-7--8-8-7-7-8-8-7-7-8-8-0-
|-8--7-7--8-8-7-7-8-8-7-7-8-8-0-

Verse 1 - Palm Mute
|-------------------------------------------------
|-------------------------------------------------
|-------------------------------------------------
|---7-8---7-8---7-8---7-8---6-7---6-7---6-7---6-7-
|-5-----5-----5-----5-----4-----4-----4-----4-----
|-------------------------------------------------

|-------------------------------
|-------------------------------
|-------------------------------
|-------------------------------  X4
|-8--7-7--8-8-7-7-8-8-7-7-8-8-0-
|-8--7-7--8-8-7-7-8-8-7-7-8-8-0-

Verse - Palm Mute
|-----------------------------------------------------
|-----------------------------------------------------
|-----------------------------------------------------
|---9-10---9-10---9-10---9-10---9-8---9-8---9-8---9-8-
|-7------7------7------7------6-----6-----6-----6-----
|-----------------------------------------------------
[ Tab from: http://www.guitartabs.cc/tabs/s/system_of_a_down/bounce_tab_ver_2.html ]
Chorus - Heavy Palm Mute
|-------------------------------
|-------------------------------
|-------------------------------  X4
|-------------------------------
|-8--7-7--8-8-7-7-8-8-7-7-8-8-0-
|-8--7-7--8-8-7-7-8-8-7-7-8-8-0-

Bridge - Let Ring
|------------------------------------------------------
|------------------------------------------------------
|----10-----10-----10-----10-----9-----9-----9-----9---
|-8------8------8------8------8-----8-----8-----8------ X2
|------------------------------------------------------
|------------------------------------------------------

Bridge 2
|----------------------------
|----------------------------
|----------------------------  X4
|-8-8-0--8-8-0--8-8-0--8-8-0-
|-8-8-0--8-8-0--8-8-0--8-8-0-


Bridge 3
|----------------------------------------------
|-x-x-----x-----x-----x-----x----x----x---x----
|-x-x-10--x-10--x-10--x-10--x-9--x-9--x-9-x-9--
|-x-x-8---x-8---x-8---x-8---x-8--x-8--x-8-x-8--
|----------------------------------------------
|----------------------------------------------

Outro
|-------------------------------
|-------------------------------
|------------------------------- X4
|-------------------------------
|-8--7-7--8-8-7-7-8-8-7-7-8-8-0-
|-8--7-7--8-8-7-7-8-8-7-7-8-8-0-

Well that’s the whole song all there 
just follow lines it’s there.
The Tuning might not be right you can 
either do drop D or a full step down then put your
low D to a C It might sound Better Well Later.


Comments