System Of A Down - Bounce Chords & Tabs

 

Bounce Chords & Tabs

System Of A Down Chords & Tabs

Version: 1 Type: Tab 0 ratings
1 star 2 stars 3 stars 4 stars 5 stars
comments

Bounce Tab

CHORUS: Main intro
|----------------|
|----------------|
|----------------|
|-8-778877877880-|
|-8-778877877880-|
|-8-778877877880-|
heavy palm mute (distortion)

VERSE: palm mute
|----------------------------------------|
|----------------------------------------|
|----------------------------------------|
|----------------------------------------|
|-13-12-13--13-12-13--13-12-13--13-12-13-|
|----------------------------------------|

|----------------------------------------|
|----------------------------------------|
|----------------------------------------|
|----------------------------------------|
|-12-11-12--12-11-12--12-11-12--12-11-12-|
|----------------------------------------|

VERSE 2:
|-----------------------------------------------------|
|-----------------------------------------------------|
|-----10-----10-----10-----10-----9-----9-----9-----9-|
|---12-----12-----12-----12-----11----11----11----11--|
|-12-----12-----12-----12-----11----11----11----11----|
|-----------------------------------------------------|

Part 1:
|-------------------------------------|
|-------------------------------------|
|---10---10---10---10---9---9---9---9-|
|-8----8----8----8----7---7---7---7---|
|-------------------------------------|
|-------------------------------------|
[ Tab from: http://www.guitartabs.cc/tabs/s/system_of_a_down/bounce_tab.html ]
Part 2:
|----------------------------|
|----------------------------|
|----------------------------|
|-8-8-0--8-8-0--8-8-0--8-8-0-|
|-8-8-0--8-8-0--8-8-0--8-8-0-|
|-8-8-0--8-8-0--8-8-0--8-8-0-|

Part 3:
|-----------------------------------------------------|
|-----------------------------------------------------|
|-----10-----10-----10-----10-----9-----9-----9-----9-|
|------8------8------8------8-----7-----7-----7-----7-|
|-0-0----0-0----0-0----0-0----0-0---0-0---0-0---0-0---|
|-0-0----0-0----0-0----0-0----0-0---0-0---0-0---0-0---|
Palm mute all

Part 4: (palm mute)
|------------------------------------------------------------|
|------------------------------------------------------------|
|------------------------------------------------------------|
|------------------------------------------------------------|
|------------------------------------------------------------|
|-8-8-0--8-8-0--8-8-0--8-8-0--8-7-12--8-7-12--8-7-12--8-7-12-|

Outro: Palm Mute
|------------------------------------------------------------|
|------------------------------------------------------------|
|------------------------------------------------------------|
|----7--7--7--5--5--5--3--3--3--2--2-------------------------|
|----7--7--7--5--5--5--3--3--3--2--2-------------------------|
|----5--5--5--3--3--3--1--1--1--0--0-------------------------|
Comments