System Of A Down - Boom Chords & Tabs

 

Boom Chords & Tabs

System Of A Down Chords & Tabs

Version: 5 Type: Tab 0 ratings
1 star 2 stars 3 stars 4 stars 5 stars
comments

Boom Tab

Band-System Of A Down
Song-Boom
Tab by Danko(Danijel Pervan)

I've got enought of this drop d,c toonings.
Today you can't play two diferent songs without to change the tooning on your...
So I translated it to standared tooning(eBGDAE). 
My last boom tab was not good(I didn't got a guitar near):-), But I'm shure that
this one is 100% good.

INTRO-bass

VERSE (play very fast)
e----------------------------------------------------------------------
B----------------------------------------------------------------------
G----------------------------------------------------------------------
D----------5----------------4-----------------7----------------6-------
A--3-5-6-5---6-5-6--2-4-5-4---5-4-5---5-7-8-7---8-7-8--4-6-7-6---7-6-7-
E----------------------------------------------------------------------
   I've been...
   
  * play  4 times *     * play  4 times   *
e-------------------------------5-6--------
B---8---8---7---7----T----8-7-8------------
G-*---5---5---5---*--H--*-----------8-7-5-*
D-*---------------*--E--*-----------------*
A--------------------N---------------------
E------------------------------------------


PRE-CHORUS
e--------------------------------
B--------------------------------
G--------------------------------
D-------2------2------2------2---
A-------2------2------2------2---
E---000-O--OOO-O--OOO-O--OOO-O---
        BOOM!  BOOM!  BOOM!  BOOM!

[ Tab from: http://www.guitartabs.cc/tabs/s/system_of_a_down/boom_tab_ver_5.html ]
CHORUS
e-------------------------------------------------------------
B-------------------------------------------------------------
G-------------------------------------------------------------
D--3---3---2---2---3---3---2---2---3---3---2---2---3---3---2--
A--3---3---2---2---3---3---2---2---3---3---2---2---3---3---2--
E--1---1---0---0---1---1---0---0---1---1---0---0---1---1---0--
  EVERY TIME YOU...


FILL
e----------------------
B----------------------
G----------------------
D--0--0--0--0--0--0--0-
A--0--0--0--0--0--0--0-
E--0--0--0--0--0--0--0-
 PM.................


BRIDGE
e------------------------------------------
B------------------------------------------
G------------------------------------------
D--2~-----9-8~-----9-11-12~----5-4-44-4-4--
A--2~-----9-8~-----9-11-12~----5-4-44-4-4--
E--0~-----7-6~-----7-9--10~----4-2-22-2-2--
  WHY     MUST WE...
 

OUTRO                      
e-----------------------------
B-----------------------------
G-----------------------------
D--3---3---2---2---3---3---2--
A--3---3---2---2---3---3---2--
E--1---1---0---0---1---1---0--{hammer and palm mute the last open E-chord}
  EVERY TIME YOU DROP THE BOMB!

SONG ORDER:

INTRO-bass
VERSE
PRE-CHORUS
CHORUS
PRE-CHORUS
VERSE
PRE-CHORUS
CHORUS
PRE-CHORUS
FILL
BRIDGE
PRE-CHORUS
CHORUS
PRE-CHORUS
FILL
OUTRO

This is one of the best SOAD songs ever! If you got any questions or...you can
e-mail me at pansion-pervan@tel.net.ba
Pervan
Comments