System Of A Down - Boom Chords & Tabs

 

Boom Chords & Tabs

System Of A Down Chords & Tabs

Version: 4 Type: Bass Tab 0 ratings
1 star 2 stars 3 stars 4 stars 5 stars
comments

Boom Bass Tab

System of a Down
Boom

Intro
F|----------------------------------------------------------------------------------|
C|----------------------------------------------------------------------------------|
G|----------------------------------------------------------------------------------|
C|---1-1-0-0-1-1-0-0-1-1-0-0-1-1-0-0-1-1-0-0-1-1-0-0-1-1-0-0-1-1-0------------------|


Verse
F|----------------------------------------------------------------------------------|
C|----------------------------------------------------------------------------------|
G|-5-5-5-5-5-5-5-5---4-4-4-4-4-4-4-4---10-10-10-10-10-10-10-10---5-5-5-5-5-5-5-5----|
C|----------------------------------------------------------------------------------|
(Toque esse riff duas veses, só que na segunda, nao abafe as notas)
[ Tab from: http://www.guitartabs.cc/tabs/s/system_of_a_down/boom_btab_ver_4.html ]
Chorus
F|---------------|---------------------------------|------------------------------|
C|---------------|---------------------------------|------------------------------|
G|---------------|---------------------------------|------------------------------|
C|-0---0---0---0-|-1-1-0-0-1-1-0-0-1-1-0-0-1-1-0-0-|-0---0---0---0----------------|

 Bridge
 F|----------------------------------------------------------------------------------|
C|-----------------------------------------------------------------------------------|
G|-----------------------------------------------------------------------------------|
C|---0--0--0--0--0--0--0-------------------------------------------------------------|

outro
F|--------------------------------------------------------------------------------|
C|--------------------------------------------------------------------------------|
G|--------------------------------------------------------------------------------|
C|---0~---7-6~--7-9-10~--3-2~--2-2-2----------------------------------------------|
Comments