System Of A Down - Boom Chords & Tabs

 

Boom Chords & Tabs

System Of A Down Chords & Tabs

Version: 2 Type: Bass Tab 0 ratings
1 star 2 stars 3 stars 4 stars 5 stars
comments

Boom Bass Tab

   
-------------------------------------------------------------------------------
			     Boom - System Of A Down
-------------------------------------------------------------------------------

Artist: System Of A Down
Song: Boom
Albulm: Steal This Albulm
Tabbed By : Zeroisgreatman
Tuning: BEADG

Verse:(Played fast)
G|---------------------------------------------------------------------------|
D|---------------------------------------------------------------------------|
A|---------------------------------------------------------------------------|
E|---------------------------------------------------------------------------|
B|-1-1--1-1--1-1--1-1--1-1--1-1--1-1--2-2--2-2--2-2--2-2--2-2--2-2--2-2-2-2--|

Verse type 2:(When the guitar starts to play octaves)
G|---------------------------------------------------------------------------|
D|---------------------------------------------------------------------------|
A|-3-3-3-3--4-4-4-4--------------------3-3-3-3--4-4-4-4----------------------|
E|---------------------------------------------------------------------------|
B|-------------------1-1-1-1--2-2-2-2--------------------1-1-1-1-2-2-2-2-----|
[ Tab from: http://www.guitartabs.cc/tabs/s/system_of_a_down/boom_btab_ver_2.html ]
Chorus: 
"Boom, Boom, Boom, Boom,"
G|---------------------------------------------------------------------------|
D|---------------------------------------------------------------------------|
A|---------------------------------------------------------------------------|
E|---------------------------------------------------------------------------|
B|-1----1----1----1----------------------------------------------------------|

"Every time you drop the boom you kill..."
G|---------------------------------------------------------------------------|
D|---------------------------------------------------------------------------|
A|-4-4--3-3--4-4--3-3--4-4--3-3--4-4-3---------------------------------------|
E|---------------------------------------------------------------------------|
B|---------------------------------------------------------------------------|

Bridge: "Why must we kill..."
G|---------------------------------------------------------------------------|
D|---------------------------------------------------------------------------|
A|---------------------------------------------------------------------------|
E|---------------------------------------------------------------------------|
B|-1-1-1-1--2-2-2-2--4-4-4-4--2-2-2-2----------------------------------------|


| /  slide up
| \  slide down
| h  hammer-on
| p  pull-off
| ~  vibrato
| +  harmonic
| x  Mute note

===============================================================================
Comments