System Of A Down - Boom Chords & Tabs

 

Boom Chords & Tabs

System Of A Down Chords & Tabs

Version: 1 Type: Bass Tab 2 ratings
1 star 2 stars 3 stars 4 stars 5 stars
comments

Boom Bass Tab

   
-=Boom!=-System of a down
========

tabs by Javier RodrĂ­gues

A:
F|-----|-----|
C|-----|-----|
G|-----|-----|
C|-2-2-|-0-0-|

B:
F|-----------------|-----------------|-----------------|-----------------|
C|-----------------|-----------------|-----------------|-----------------|
G|-5-5-5-5-5-5-5-5-|-4-4-4-4-4-4-4-4-|-8-8-8-8-8-8-8-8-|-6-6-6-6-6-6-6-6-|
C|-----------------|-----------------|-----------------|-----------------|

C:
F|---------------|----------------------------------------------|---------------|
C|---------------|----------------------------------------------|---------------|
G|---------------|-6--6--5--5--6--6--5--5--6--6--5--5--6--6--5/-|---------------|
C|-0---0---0---0-|----------------------------------------------|-0---0---0---0-|
[ Tab from: http://www.guitartabs.cc/tabs/s/system_of_a_down/boom_btab.html ]
D:
F|---------------------|
C|---------------------|
G|---------------------|
C|-0--0--0--0--0--0--0-|

E:
F|--------------------------------------------|
C|--------------------------------------------|
G|--------------------------------------------|
C|-0----7---6----7---9---10----3--2--2-2-2--2-|

F|-------------------------------------------|
C|-------------------------------------------|
G|-------------------------------------------|
C|-0----7---6----7---9---10----3--2--2--2--2-|


F:
F|---------------------|
C|---------------------|
G|---------------------|
C|-1--1--0--0--1--1--0-|

G:
F|----------------------------------------------|
C|----------------------------------------------|
G|-6--6--5--5--6--6--5--5--6--6--5--5--6--6--5/-|
C|----------------------------------------------|

oreder:
======

A: X8
B: X3
C:
B: X3
C:
D:
E:
C:
F:
G:
Comments