System Of A Down - Atwa Chords & Tabs

 

Atwa Chords & Tabs

System Of A Down Chords & Tabs

Version: 7 Type: Tab 0 ratings
1 star 2 stars 3 stars 4 stars 5 stars
comments

Atwa Tab

ATWA - SYSTEM OF A DOWN
TUNING = CGCFAD

INTRO/VERSES - clean
|------------------------------------------------------------------|
|------------------------------------------------------------------|
|*----------------------------------------------------------------*|
|*----8------7------10------12-------13-------12------10------8---*|
|------------------------------------------------------------------|
|---5---5\-3---3/-7----7/-8----8/-10----10\-8----8\-7----7\-5---5--|

CHORUS dist
|-------------------------------|
|-------------------------------|
|*-----------------------------*|
|*-----------------------------*|
|-5-5-5-5-5-5-5---5-5-5-5-5-5-5-|
|-5-5-5-5-5-5-5---5-5-5-5-5-5-5-|

BRIDGE - dist
|-------------------------------|----------------------------|
|-------------------------------|----------------------------|
|*-----------------------------*|----------------------------|
|*-----------------------------*|----------------------------|
|-5-5-5-5-5-5-5---5-5-5-5-5-5-5-|-5-5-5-5-5-5-5---5-5-5-5-5h6|
|-5-5-5-5-5-5-5---5-5-5-5-5-5-5-|-5-5-5-5-5-5-5---5-5-5-5-5h6|

"I don't speaků"
|-----------|-----------|-----------|-----------|
|-----------|-----------|-----------|-----------|
|-----------|-----------|-----------|-----------|
|-----------|-----------|-----------|-----------|
|-5-5-5-5h6-|-5-5-5-5h6-|-5-5-5-5h6-|-5-5-5-5h6-|
|-5-5-5-5h6-|-5-5-5-5h6-|-5-5-5-5h6-|-5-5-5-5h6-|
[ Tab from: http://www.guitartabs.cc/tabs/s/system_of_a_down/atwa_tab_ver_7.html ]
SOLO - dist
|----------------|---------------|------------------|--------------|
|----------------|---------------|------------------|--------------|
|----------------|---------------|------------------|--------------|
|-5--5-5\-3--3-3/|7--7-7/-8--8-8/|10--10-10\-8--8-8\|7--7-7\-5--5-5|
|----------------|---------------|------------------|--------------|
|----------------|---------------|------------------|--------------|


|---------------|---------------|---------------|---------------|
|---------------|---------------|---------------|---------------|
|---------------|---------------|---------------|---------------|
|5-5-5-5-5-5-5-5|3-3-3-3-3-3-3-3|7-7-7-7-7-7-7-7|8-8-8-8-8-8-8-8|
|---------------|---------------|---------------|---------------|
|---------------|---------------|---------------|---------------|


-----------------------|---------------|---------------|---------------|
-----------------------|---------------|---------------|---------------|
-----------------------|---------------|---------------|---------------|
10-10-10-10-10-10-10-10|8-8-8-8-8-8-8-8|7-7-7-7-7-7-7-7|5-5-5-5-5-5-5-5|
-----------------------|---------------|---------------|---------------|
-----------------------|---------------|---------------|---------------|

OUTRO/CHORUS - dist
|----------|-----------|-------------|-----------|
|----------|-----------|-------------|-----------|
|*---------|-----------|-------------|----------*|
|*---------|-----------|-------------|----------*|
|-5----3--3|7---7-8---8|10---10-8---8|7---7-5--5-|
|-5----3--3|7---7-8---8|10---10-8---8|7---7-5--5-|

If you have any questions or comments, email me at 
silverchair_surfing_bird@hotmail.com
Comments