System Of A Down - Atwa Chords & Tabs

 

Atwa Chords & Tabs

System Of A Down Chords & Tabs

Version: 13 Type: Tab 0 ratings
1 star 2 stars 3 stars 4 stars 5 stars
comments

Atwa Tab

Band: System Of A Down
Song: Atwa
Album: Toxicity
Transcribed by: Sergei (o_my_god_thats_the_funky_shit@hotmail.com)

This song is player in Drop-D tuning

Intro:

E ||--------|--------|--------|--------|--------|--------|--------|--------|
B ||--------|--------|--------|--------|--------|--------|--------|--------|
G ||----1---|----0---|----3---|----5---|----6---|----5---|----3---|----1---|
D ||--------|--------|--------|--------|--------|--------|--------|--------|
A ||--------|--------|--------|--------|--------|--------|--------|--------|
D ||-3----3-|-1----1-|-5----5-|-6----6-|-8----8-|-6----6-|-5----5-|-3----3-|    x4

Heavy Part:

E ||--------|--------|--------|--------|--------|--------|--------|--------|
B ||--------|--------|--------|--------|--------|--------|--------|--------|
G ||--------|--------|--------|--------|--------|--------|--------|--------|
D ||--------|--------|--------|--------|--------|--------|--------|--------|
A ||3-333333|3-333333|3-333333|3-333333|3-333333|3-333333|3-333333|3-333333|
D ||3-333333|3-333333|3-333333|3-333333|3-333333|3-333333|3-333333|3-333333|    x1


After that repeat Intro again, then Heavy Part, and then this:

Chorus:

E ||--------|--------|--------|--------|
B ||--------|--------|--------|--------|
G ||--------|--------|--------|--------|
D ||--------|--------|--------|--------|
A ||3-3-3-34|3-3-3-34|3-3-3-34|3-3-3-34|
D ||3-3-3-34|3-3-3-34|3-3-3-34|3-3-3-34|    x1

Then:

Solo:
[ Tab from: http://www.guitartabs.cc/tabs/s/system_of_a_down/atwa_tab_ver_13.html ]
E ||-1---1-1|--------|-3---3-3|-4---4-4|-6---6-6|-4---4-4|-3---3-3|-1---1-1|
B ||--------|-4---4-4|--------|--------|--------|--------|--------|--------|
G ||--------|--------|--------|--------|--------|--------|--------|--------|
D ||--------|--------|--------|--------|--------|--------|--------|--------|
A ||--------|--------|--------|--------|--------|--------|--------|--------|
D ||--------|--------|--------|--------|--------|--------|--------|--------|

E ||11111111|--------|33333333|44444444|66666666|44444444|33333333|11111111|
B ||--------|44444444|--------|--------|--------|--------|--------|--------|
G ||--------|--------|--------|--------|--------|--------|--------|--------|
D ||--------|--------|--------|--------|--------|--------|--------|--------|
A ||--------|--------|--------|--------|--------|--------|--------|--------|
D ||--------|--------|--------|--------|--------|--------|--------|--------|   x1

E ||--------|--------|--------|--------|--------|--------|--------|--------|
B ||--------|--------|--------|--------|--------|--------|--------|--------|
G ||--------|--------|--------|--------|--------|--------|--------|--------|
D ||--------|--------|--------|--------|--------|--------|--------|--------|
A ||-3----3-|-1----1-|-5----5-|-6----6-|-8----8-|-6----6-|-5----5-|-3----3-|
D ||-3----3-|-1----1-|-5----5-|-6----6-|-8----8-|-6----6-|-5----5-|-3----3-|   x2

After that you play Heavy Part and then Chorus.


But here is the order anyways:


1.  Intro              - 4 times
2.  Heavy Part         - 1 time
3.  Intro              - 4 times
4.  Heavy Part         - 1 time
5.  Chorus             - 1 time
6.  Solo               - 1 time
9.  Heavy Part         - 1 time
10. Chorus             - 1 time

For questions or comments mail.
Comments