System Of A Down - Atwa Chords & Tabs

 

Atwa Chords & Tabs

System Of A Down Chords & Tabs

Version: 12 Type: Tab 0 ratings
1 star 2 stars 3 stars 4 stars 5 stars
comments

Atwa Tab

Band: System Of A Down
Song: Atwa
Album: Toxicity
Transcribed by: Sergey Perfiliev (o_my_god_thats_the_funky_shit@hotmail.com)

Intro:

E ||--------|--------|--------|--------|--------|--------|--------|--------|
H ||--------|--------|--------|--------|--------|--------|--------|--------|
G ||----2---|----1---|----4---|----6---|----7---|----6---|----4---|----2---|
D ||--------|--------|--------|--------|--------|--------|--------|--------|
A ||--------|--------|--------|--------|--------|--------|--------|--------|
E ||-2----2-|-0----0-|-4----4-|-5----5-|-7----7-|-5----5-|-4----4-|-2----2-|    x4

Heavy Part:

E ||--------|--------|--------|--------|--------|--------|--------|--------|
H ||--------|--------|--------|--------|--------|--------|--------|--------|
G ||--------|--------|--------|--------|--------|--------|--------|--------|
D ||--------|--------|--------|--------|--------|--------|--------|--------|
A ||4-444444|4-444444|4-444444|4-444444|4-444444|4-444444|4-444444|4-444444|
E ||2-222222|2-222222|2-222222|2-222222|2-222222|2-222222|2-222222|2-222222|    x1


After that repeat Intro again, then Heavy Part, and then this:

Chorus:

E ||--------|--------|--------|--------|
H ||--------|--------|--------|--------|
G ||--------|--------|--------|--------|
D ||--------|--------|--------|--------|
A ||4-4-4-45|4-4-4-45|4-4-4-45|4-4-4-45|
E ||2-2-2-23|2-2-2-23|2-2-2-23|2-2-2-23|    x1

Then:

Melody:
[ Tab from: http://www.guitartabs.cc/tabs/s/system_of_a_down/atwa_tab_ver_12.html ]
E ||-2---2-2|-0---0-0|-4---4-4|-5---5-5|-7---7-7|-5---5-5|-4---4-4|-2---2-2|
H ||--------|--------|--------|--------|--------|--------|--------|--------|
G ||--------|--------|--------|--------|--------|--------|--------|--------|
D ||--------|--------|--------|--------|--------|--------|--------|--------|
A ||--------|--------|--------|--------|--------|--------|--------|--------|
E ||--------|--------|--------|--------|--------|--------|--------|--------|   x1

After that:

Anvanced Melody:

E ||22222222|00000000|44444444|55555555|77777777|55555555|44444444|22222222|
H ||--------|--------|--------|--------|--------|--------|--------|--------|
G ||--------|--------|--------|--------|--------|--------|--------|--------|
D ||--------|--------|--------|--------|--------|--------|--------|--------|
A ||--------|--------|--------|--------|--------|--------|--------|--------|
E ||--------|--------|--------|--------|--------|--------|--------|--------|   x1


And finally

Andvanced Intro:

E ||--------|--------|--------|--------|--------|--------|--------|--------|
H ||--------|--------|--------|--------|--------|--------|--------|--------|
G ||--------|--------|--------|--------|--------|--------|--------|--------|
D ||--------|--------|--------|--------|--------|--------|--------|--------|
A ||-4----4-|-2----2-|-6----6-|-7----7-|-9----9-|-7----7-|-6----6-|-4----4-|
E ||-2----2-|-0----0-|-4----4-|-5----5-|-7----7-|-5----5-|-4----4-|-2----2-|   x2

After that you play Heavy Part and then Chorus.


But here is the order anyways:


1.  Intro              - 4 times
2.  Heavy Part         - 1 time
3.  Intro              - 4 times
4.  Heavy Part         - 1 time
5.  Chorus             - 1 time
6.  Melody             - 1 time
7.  Anvanced Melody    - 1 time
8.  Andvanced Intro    - 2 times
9.  Heavy Part         - 1 time
10. Chorus             - 1 time

For any questions, coments or wishes please write o_my_god_thats_the_funky_shit@hotmail.com or funkyshit@ukr.net
(Plz rite cause i wanna see wat ya think of it)

P.S. I had trouble choosing names for the parts :-)
Comments