System Of A Down - Atwa Chords & Tabs

 

Atwa Chords & Tabs

System Of A Down Chords & Tabs

Version: 1 Type: Tab 0 ratings
1 star 2 stars 3 stars 4 stars 5 stars
comments

Atwa Tab

"A.T.W.A." by System of a Down
Album - Toxicity
Tabbed by Caelum

caelumhades@hotmail.com

This new CD is awesome, everyone go pick it 
up! This is my favorite song off it. I play it
drop D (DADGBe) but you don't have to drop D if 
you don't want to. You only need it to hit one
chord, and if you can live without hitting that
one chord you can just play it in standard
tuning (you'll have to make minor changes to
my tab)

So here it is, drop D:

Intro/Verse:

--------------------------------------
--------------------------------------
--------------------------------------
--------6------5-------8--------10----
------8---8--6---6--10---10--11----11-
-(10)---------------------------------

-----------------------------------
-----------------------------------
-----------------------------------
----11--------10--------8-------6--
-13----13--11----11--10---10--8----
-----------------------------------

Chorus:
[ Tab from: http://www.guitartabs.cc/tabs/s/system_of_a_down/atwa_tab.html ]
--------------------
--------------------
--------------------
-3-3-3-3-3-3-3-3----
-3-3-3-3-3-3-3-3----
-3-3-3-3-3-3-3-3----

After second chorus:

----------------------
----------------------
----------------------
-3-3-3-3-3-4----------
-3-3-3-3-3-4----------
-3-3-3-3-3-4----------

Then:

------------------------------
------------------------------
-10-10-8-8--12-12-13-13-15-15-
------------------------------
-8--8--6-6--10-10-11-11-13-13-
------------------------------

-----------------------------
-----------------------------
-13-13--12-12--10-10---------
-----------------------------
-11-11--10-10--8--8----------
-----------------------------

Heavy Verse:

------------------------------------
------------------------------------
------------------------------------
-3-3-3-1-1--5-5-6-6-8-8-6-6-5-5-3-3-
-3-3-3-1-1--5-5-6-6-8-8-6-6-5-5-3-3-
-3-3-3-1-1--5-5-6-6-8-8-6-6-5-5-3-3-

I'm pretty sure everything's right.
Comments