System Of A Down - Aerials Chords & Tabs

 

Aerials Chords & Tabs

System Of A Down Chords & Tabs

Version: 3 Type: Tab 2 ratings
1 star 2 stars 3 stars 4 stars 5 stars
comments

Aerials Tab

Aerials
System of a down
Toxicity

Tabbed by The Caco

All is in order but for clarity i'm gonna show the order:

-Intro
-Chourus
-intro
-Chourus
-Riff 1
-Riff 2
-Intro(x2)

Notes:
1-At the Chourus part you will see a X3 because 
all the part of the chourus before that is repeated 3 times. 

2-It's very easy to learn but you need to practice a lot.      

3-Please rate this song, it's very important to me.

4- And please...enjoy


Intro

d|------------------------------------------------------------------|
a|------------------------------------------------------------------|
f|------------------------------------------------------------------|
C|-----0-----0-----0-----0-----0--------0-----0-----0-----0-----0---|
G|---0-----0-----0-----0-----0--------0-----0-----0-----0-----0-----|
C|-3-----2-----0-----0-----0-----0--5-----3-----2-----2-----2-----2-|

d|------------------------------------------------------------------|
a|------------------------------------------------------------------|
f|------------------------------------------------------------------|
C|-----0-----0-----0-----0---0---0------0-----0-----0-----0-----0---|
G|---0-----0-----0-----0--------------0-----0-----0-----0-----0-----|
C|-3-----5-----7-----8-----7---5----3-----2-----0-----0-----0-----0-|

d|----------------------------------------------------------------------|
a|----------------------------------------------------------------------|
f|----------------------------------------------------------------------|
C|------0------0-----0-----0-----0---------0------0-----0-----0-----0---|
G|----0------0-----0-----0-----0---------0------0-----0-----0-----0-----|
C|-12-----10-----7-----7-----7-----7--14-----10-----7-----7-----7-----7-|

d|------------------------------------------------------------------------------|
a|------------------------------------------------------------------------------|
f|------------------------------------------------------------------------------|
C|------0------0------0------0----0----0-------0------0------0------0------0----|
G|----0------0------0------0-----------------0------0------0------0------0------|
C|-12-----14-----15-----17-----15---14----12-----10-----12-----12-----12-----12-|


Chourus

d|------------------------------------------------------------------------------| 
a|------------------------------------------------------------------------------| 
f|-----------------------10-----------8------------7----------5-----------------|
C|--6-------------0000---10---0000----8----0000----7---0000---5-X3------6-------|
G|--6-X16----------------8------------6------------5----------3---------6-X16---|
C|--6-------------------------------------------------------------------6-------| 
                   
Intro

d|------------------------------------------------------------------|
a|------------------------------------------------------------------|
f|------------------------------------------------------------------|
C|-----0-----0-----0-----0-----0--------0-----0-----0-----0-----0---|
G|---0-----0-----0-----0-----0--------0-----0-----0-----0-----0-----|
C|-3-----2-----0-----0-----0-----0--5-----3-----2-----2-----2-----2-|

d|------------------------------------------------------------------|
a|------------------------------------------------------------------|
f|------------------------------------------------------------------|
C|-----0-----0-----0-----0---0---0------0-----0-----0-----0-----0---|
G|---0-----0-----0-----0--------------0-----0-----0-----0-----0-----|
C|-3-----5-----7-----8-----7---5----3-----2-----0-----0-----0-----0-|
[ Tab from: http://www.guitartabs.cc/tabs/s/system_of_a_down/aerials_tab_ver_3.html ]
d|----------------------------------------------------------------------|
a|----------------------------------------------------------------------|
f|----------------------------------------------------------------------|
C|------0------0-----0-----0-----0---------0------0-----0-----0-----0---|
G|----0------0-----0-----0-----0---------0------0-----0-----0-----0-----|
C|-12-----10-----7-----7-----7-----7--14-----10-----7-----7-----7-----7-|

d|------------------------------------------------------------------------------|
a|------------------------------------------------------------------------------|
f|------------------------------------------------------------------------------|
C|------0------0------0------0----0----0-------0------0------0------0------0----|
G|----0------0------0------0-----------------0------0------0------0------0------|
C|-12-----14-----15-----17-----15---14----12-----10-----12-----12-----12-----12-|

Chourus
    
d|------------------------------------------------------------------------------| 
a|------------------------------------------------------------------------------| 
f|-----------------------10-----------8------------7----------5-----------------|
C|--6-------------0000---10---0000----8----0000----7---0000---5-X3------6-------|
G|--6-X16----------------8------------6------------5----------3---------6-X16---|
C|--6-------------------------------------------------------------------6-------| 
                                                            
Riff 1


d|-----------------| 
a|-----------------| 
f|-----------------| 
C|--5--------------| 
G|--5-X16----------| 
C|--5--------------| 
     
Riff 2

d|------------------------------------------|
a|------------------------------------------|
f|------------------------------------------|
C|--5-3-0---7-5-3---5-7-9-10-9-7-5-3-0------|
G|--5-3-0---7-5-3---5-7-9-10-9-7-5-3-0------|
C|--5-3-0---7-5-3---5-7-9-10-9-7-5-3-0------|

Intro

d|------------------------------------------------------------------|
a|------------------------------------------------------------------|
f|------------------------------------------------------------------|
C|-----0-----0-----0-----0-----0--------0-----0-----0-----0-----0---|
G|---0-----0-----0-----0-----0--------0-----0-----0-----0-----0-----|
C|-3-----2-----0-----0-----0-----0--5-----3-----2-----2-----2-----2-|

d|------------------------------------------------------------------|
a|------------------------------------------------------------------|
f|------------------------------------------------------------------|
C|-----0-----0-----0-----0---0---0------0-----0-----0-----0-----0---|
G|---0-----0-----0-----0--------------0-----0-----0-----0-----0-----|
C|-3-----5-----7-----8-----7---5----3-----2-----0-----0-----0-----0-|

d|----------------------------------------------------------------------|
a|----------------------------------------------------------------------|
f|----------------------------------------------------------------------|
C|------0------0-----0-----0-----0---------0------0-----0-----0-----0---|
G|----0------0-----0-----0-----0---------0------0-----0-----0-----0-----|
C|-12-----10-----7-----7-----7-----7--14-----10-----7-----7-----7-----7-|

d|--------------------------------------------------------------------------------|
a|--------------------------------------------------------------------------------|
f|--------------------------------------------------------------------------------|
C|------0------0------0------0----0----0-------0------0------0------0------0------|
G|----0------0------0------0-----------------0------0------0------0------0--------|
C|-12-----14-----15-----17-----15---14----12-----10-----12-----12-----12-----12---|      
Comments