System Of A Down - Aerials Chords & Tabs

 

Aerials Chords & Tabs

System Of A Down Chords & Tabs

Version: 2 Type: Tab 23 ratings
1 star 2 stars 3 stars 4 stars 5 stars
comments

Aerials Tab

   
Band: System of a Down
Song: Aerials
Album: Toxicity

ok i know this song is right.  The guy who wrote aerials 4 is full of it. he left out the bridge and the chorus was wrong.
This song is right b/c i got it out the guitar world mag.


Tuning : D A D G A D   Down half step Drop "D"

INTRO:   9 Sec..Appr.

D------------------------------------------------------|-----------------------------------------------------|
A------------------------------------------------------|-----------------------------------------------------|
D------------------------------------------------------|-----------------------------------------------------|
G---------0---------0-------0-------0---------0------|---------0--------0--------0-------0-------0------|
A------0---------0-------0-------0--------0----------|------0--------0--------0-------0--------0--------|
D---3---------2-------0-------0--------0----------0-|----5-------3--------2-------2---------2-------2--|

D-----------------------------------------------------------|-------------------------------------------------------|
A-----------------------------------------------------------|-------------------------------------------------------|
D-----------------------------------------------------------|-------------------------------------------------------|
G---------0---------0---------0--------0------0----------|----------0---------0---------0-------0-------0------|
A------0---------0---------0--------0-----------------0--|-------0--------0----------0-------0--------0--------|
D---3---------5---------7--------8--------7------5-------|---3--------2----------0--------0--------0-------0--|

D-------------------------------------------------------------|--------------------------------------------------------------|
A-------------------------------------------------------------|--------------------------------------------------------------|
D-------------------------------------------------------------|--------------------------------------------------------------|
G-----------0----------0---------0--------0--------0-------|-----------0---------0--------0---------0---------0---------|
A--------0----------0---------0--------0--------0----------|--------0---------0--------0---------0---------0------------|
D---12---------10---------7--------7--------7---------7---|---14--------10-------7---------7---------7---------7-----|
[ Tab from: http://www.guitartabs.cc/tabs/s/system_of_a_down/aerials_tab_ver_2.html ]
D----------------------------------------------------------------------|--------------------------------------------------------|
A----------------------------------------------------------------------|--------------------------------------------------------|
D----------------------------------------------------------------------|--------------------------12---12---12---------------|
G--------------0---------0----------0---------0--------0------------|---------------------------0----0-----0----------------|
A-----------0---------0----------0---------0-------------------0----|--------------------0-----12---12----12--------------|
D------12--------14--------15--------17--------15------14-------|---12---12---10---------------------------------------|

Chorus:

D--------------------------------------------------------------------------------------|
A--------------------------------------------------------------------------------------|
D--------------------------------------------------------------------------------------|
G------8--8-8--8---8---8--8---10-------8--8---8---8----8----10-----------------|
A------8--8-8--8---8---8--8----8-------8---8--8----8---8------8-----------------|
D------8--8-8--8---8---8--8----8-------8---8--8----8---8------8-----------------|


D----------------------------------------------------------------------------------------------------------------------|
A----------------------------------------------------------------------------------------------------------------------|
D-------------------12-------------------10--------------------9-----------------------7----------------------------|
G--------------------x--------------------x---------------------x-----------------------x----------------------------|
A---0--0--0--0----10-----0--0-0-0-----8---0--0--0--0-----7-----0--0--0--0------5----------------------------|
D---0--0--0--0------------0--0-0-0---------0--0--0--0------------0--0--0--0------------------------------------|

Bridge: The kick ass part


D--------------------------------------------------------------------------------------------|
A--------------------------------------------------------------------------------------------|
D--------------------------------------------------------------------------------------------|
G----3--2---0-----------5---3---2-----2--------3-----5---7---8--7---5---3---2--0-----|
A----3--2---0-----------5---3---2-----2--------3-----5---7---8--7---5---3---2--0-----|
D----3--2---0-----------5---3---2-----2--------3-----5---7---8--7---5---3---2--0-----|


Intro
Chorus
Intro
Chorus
Bridge
Intro
ending
Comments