System Of A Down - Aerials Chords & Tabs

 

Aerials Chords & Tabs

System Of A Down Chords & Tabs

Version: 6 Type: Bass Tab 0 ratings
1 star 2 stars 3 stars 4 stars 5 stars
comments

Aerials Bass Tab

   
Band: System of a down
Title: Aerials

Tabbed by: Larwal

e-mail: nowytom@autograf.pl

Intro:
F|----------------------------------------------------------|
C|----------------------------------------------------------|
G|----------------------------------------------------------|
C|-3-2-0---5-3-2---3-5-7-8-7-5-3-2-0---12-10-7----14-10-7---|

F|-------------------------|
C|-------------------------|
G|-------------------------|
C|-12-14-15-17-15-14-12-10-|

Chorus:      Life is a waterfall (...)
F|-------------------------------------------------------------------|
C|-------------------------------------------------------------------|
G|---------------------------------------10-------8-------7-------5--|
C|-8--8--88-8-8-8-88-8-8-8-8-8-888---0000----0000----0000----0000----|

Bridge:
F|----------------------------------|
C|----------------------------------|
G|----------------------------------|
C|-8--8--88-8-8-8-88-8-8-8-8-8-888--|

Verse:       Aerials in the sky  (...)
F|-------------------------------------|
C|-------------------------------------|
G|-------------------------------------|
C|-3-2-0---5-3-2---3-5-7-8-7-5-3-2-0---|

Chorus:      Life is a waterfall (...)
F|-------------------------------------------------------------------|
C|-------------------------------------------------------------------|
G|---------------------------------------10-------8-------7-------5--|
C|-8--8--88-8-8-8-88-8-8-8-8-8-888---0000----0000----0000----0000----|
[ Tab from: http://www.guitartabs.cc/tabs/s/system_of_a_down/aerials_btab_ver_6.html ]
Bridge:
F|-------------------------------------------------------|
C|-------------------------------------------------------|
G|-------------------------------------------------------|
C|-8--8--88-8-8-8-88-8-8-8-8-8-888---7-7-7-7-7-7-7-7777--|

Pre-verse:
F|--------------------------------------------|
C|--------------------------------------------|
G|--------------------------------------------|
C|-3-2-0-----5-3-2-------5-7-8-7-5-3-2--------|

Verse:       Aerials in the sky  (...)
F|-------------------------------------|
C|-------------------------------------|
G|-------------------------------------|
C|-3-2-0---5-3-2---3-5-7-8-7-5-3-2-0---|


All song:

Intro      x1
Chorus     x3
Bridge     x1
Life is a waterfall
We're one in the river
And one again after the fall
Swimming through the void
We hear the word
We lost ourselves, but we find it all...
Cause we are the ones that want to play
Always want to go, but you never wanna stay
And we are the ones that want to choose
Always want to play, but you never want to lose

Verse      x2
Aerials, in the sky
When you lose small mind
You free your life

Chorus     x3
Bridge     x1
Life is a waterfall
We drink from the river
Then we turn around and put up our walls
Swimming through the void
We hear the word
We lost ourselves but we find it all...
Cause we are the ones that want to play
Always want to go, but you never wanna stay
And we are the ones that want to choose
Always want to play, but you never want to lose

Pre-verse  x3
Verse      x4
Aerials, in the sky
When you lose small mind
You free your life
Aerials, so up high
When you free your eyes
Eternal prize
Aerials, in the sky
When you lose small mind
You free your life
Aerials, so up high
When you free your eyes
Eternal prize
Comments