System Of A Down - Aerials Chords & Tabs

 

Aerials Chords & Tabs

System Of A Down Chords & Tabs

Version: 3 Type: Bass Tab 0 ratings
1 star 2 stars 3 stars 4 stars 5 stars
comments

Aerials Bass Tab

System of a Down: Aerials
Tabbed by: Badassbassist (Me)

Ok I really can't beleive how all four versions of this song are wrong.  That's
really quite sad.  Here is the correct version that the bassist of System of a
Down himself plays.

Intro:
actually the bassist doesn't play here at all.  It sounds like it but really you
don't trust me on this one, the bassist doesn't and I'm 100% possitive (I've seen
him live)

Chorus:  Life is a waterfall (my rythm might be off, just play 8's to the beat)
F|----------------------------------------------------------
C|----------------------------------------------------------
G|--------------------------------------10----8-----7-----5-
C|8--8--88-8--8--88-8--8--8-8-8-888-0000--0000--0000--0000--
[ Tab from: http://www.guitartabs.cc/tabs/s/system_of_a_down/aerials_btab_ver_3.html ]
Verse: Aerials in the sky...
F|--------------------------------------
C|--------------------------------------
G|--------------------------------------
C|3-2-0----5-3-2----2-3-5-7-8-5-3-2-0---

Chorus:  Life is a waterfall 
F|----------------------------------------------------------
C|----------------------------------------------------------
G|--------------------------------------10----8-----7-----5-
C|8--8--88-8--8--88-8--8--8-8-8-888-0000--0000--0000--0000--

on the second time you do this you play
C|8--8--88-8-88-7-7-7-7-7-7-7777-

Verse:Aerials in the sky...
F|---------------------------------------
C|---------------------------------------
G|---------------------------------------
C|3-2-0----5-3-2----23-5-7-8-7-5-3-2-0---
 outro the bass doesn't play either...but if you feel like it just play as you do
in the verse

that's it...I hope i didn't screw it up
Comments