System Of A Down - Add Chords & Tabs

 

Add Chords & Tabs

System Of A Down Chords & Tabs

Version: 1 Type: Bass Tab 0 ratings
1 star 2 stars 3 stars 4 stars 5 stars
comments

Add Bass Tab

   
-=A.D.D.=- System of a down
==========
Tab by Javier Rodriguez

Intro guitar

Bass
A:
F|-----------|-----------|-----------|-----------------|
C|-----------|-----------|-----------|-----------------|
G|-5---------|-5---------|-5---------|-5---------3-5-6-|
C|---0-0-0-0-|---0-0-0-0-|---0-0-0-0-|---0-0-0-0-------|

B:
F|-------------------------|-------------------------|------------------------------|
C|-------------------------|-------------------------|------------------------------|
G|-------------------------|-------------------------|------------------------------|
C|-1--1--1-1-1-7--7--7-7-7-|-0--0--0-0-0-6--6--6-6-6-|-11--11--11-11-11-5--5--5-5-5-|
[ Tab from: http://www.guitartabs.cc/tabs/s/system_of_a_down/add_btab.html ]
C:
F|-------------------|
C|-------------------|
G|-------------------|
C|-0-0-0-0-0-0-0-0-0-|

D:
F|----------|
C|----------|
G|----------|
C|-0--0-0-0-|

E:
F|--------------|--------------|
C|--------------|-5h-----------|
G|-5h-----------|--------------|
C|-----0--0-0-0-|-----0--0-0-0-|

F:
F|---------------|
C|---------------|
G|---------------|
C|-0--0--0-0-0-0-|

G:
F|------------|-------|
C|------------|-------|
G|-5----------|-3-5-6-|
C|---0--0-0-0-|-------|

Orden:
=====

Intro guitar
A: X4
B: 
C: X7
D: X6
B:
E:
B:
C: X7
D: X6
B:
E:
B:
Out bass, only guitar
A: X4
Out Bass, only Guitar
F: X4
D: X6
B:
E:
B:
E:
G:


Comments