System Of A Down - 36 Chords & Tabs

 

36 Chords & Tabs

System Of A Down Chords & Tabs

Version: 1 Type: Tab 0 ratings
1 star 2 stars 3 stars 4 stars 5 stars
comments

36 Tab

   
System of a Down
Steal This Album!
rmwaters3000@hotmail.com
36

This is the shortest song from Steal This Album! at 46 seconds but rules!
This song is so simple so you can sing to it as you play.
I figured out this tab by accident but it sounds right to me.
The choruses are just drums & bass but so you don't get bored you can use the guitar.
Tuning - c g c f a d

INTRO (Distortion)
Let ring through out intro
--------------------------------|
-----0-----0-----0------0-------|
--7-----8-----9-----10----------|
--------------------------------|
--------------------------------|
--------------------------------|

--------------------------------|
-----0-----0-----0--------------|
--7-----8-----9-----10----------|
--------------------------------|
--------------------------------|
--------------------------------|

CHORUS 1
PM throughout chorus
-------------------------------------------------------------------------------|
-------------------------------------------------------------------------------|
-------------------------------------------------------------------------------|
-------------------------------------------------------------------------------|
0-0-0-0-0-0-0-0-0-0-0-0-0-0-0-0-0-0-0-0-0-0-0-0-0-0-0-0-0-0-0-0-0-0-0-0-0-0-0-0|
0-0-0-0-0-0-0-0-0-0-0-0-0-0-0-0-0-0-0-0-0-0-0-0-0-0-0-0-0-0-0-0-0-0-0-0-0-0-0-0|
Television is disgrace, When you can't hold this whole race, Can you break a,
Can you break a, Will you live at your own pace?
[ Tab from: http://www.guitartabs.cc/tabs/s/system_of_a_down/36_tab.html ]
VERSE 1
--5-6-5-6-5-6-5-6-5-6-5-6-5-6-5-6-5-6-5-6-5-6-5-6-5-6-5-6-5-6--5-----|
--5-6-5-6-5-6-5-6-5-6-5-6-5-6-5-6-5-6-5-6-5-6-5-6-5-6-5-6-5-6--5-----|
--5-6-5-6-5-6-5-6-5-6-5-6-5-6-5-6-5-6-5-6-5-6-5-6-5-6-5-6-5-6--5-----|
---------------------------------------------------------------------|
---------------------------------------------------------------------|
---------------------------------------------------------------------|
                                   Life, so, unnessecary

CHORUS 2
PM throughout chorus
-------------------------------------------------------------------------------|
-------------------------------------------------------------------------------|
-------------------------------------------------------------------------------|
-------------------------------------------------------------------------------|
0-0-0-0-0-0-0-0-0-0-0-0-0-0-0-0-0-0-0-0-0-0-0-0-0-0-0-0-0-0-0-0-0-0-0-0-0-0-0-0|
0-0-0-0-0-0-0-0-0-0-0-0-0-0-0-0-0-0-0-0-0-0-0-0-0-0-0-0-0-0-0-0-0-0-0-0-0-0-0-0|
Television is disgrace, When you can't hold this whole race, Can you break a,
Can you break a, Will you live at your own pace?

VERSE 2
--5-6-5-6-5-6-5-6--5-----|
--5-6-5-6-5-6-5-6--5-----|
--5-6-5-6-5-6-5-6--5-----|
-------------------------|
-------------------------|
-------------------------|

CHORUS 3
PM throughout chorus
----------------------------------|
----------------------------------|
----------------------------------|
----------------------------------|
--0-0-0-0-0-0-0-0-0-0-0-0-0-0-0---|
--0-0-0-0-0-0-0-0-0-0-0-0-0-0-0---|
Now will you live at your own pace?

VERSE 3
--5-6-5-6-5-6--5-----|
--5-6-5-6-5-6--5-----|
--5-6-5-6-5-6--5-----|
---------------------|
---------------------|
---------------------|

CHORUS 4
PM throughout chorus
----------------------------------|
----------------------------------|
----------------------------------|
----------------------------------|
--0-0-0-0-0-0-0-0-0-0-0-0-0-0-0---|
--0-0-0-0-0-0-0-0-0-0-0-0-0-0-0---|
Oy oy oy oy, oy oy oy.

Just so you know all the choruses are approximate figures and not the actual
amount (unless I'm lucky).Also I know the lyrics mightened be right. Feel free
to e-mail me or leave a comment.
                               fin
Comments