System Failure - What Is This Chords & Tabs

 

What Is This Chords & Tabs

System Failure Chords & Tabs

Version: 2 Type: Tab 0 ratings
1 star 2 stars 3 stars 4 stars 5 stars
comments

What Is This Tab

   
System Failure
What is This

Tuning
Standard
(E A D G B E)

__________________________________________________________

!!!!Chrous!!!!


e|---------------------------------------------------|
B|---------------------------------------------------|
G|---------------------------------------------------|
D|-x-x-x-4-x-4--x-x-x-7-x-7--x-x-x-3-x-3--x-x-4-3-2-1|
A|-x-x-x-4-x-4--x-x-x-7-x-7--x-x-x-3-x-3--x-x-4-3-2-1|
E|-x-x-x-4-x-4--x-x-x-7-x-7--x-x-x-3-x-3--x-x-4-3-2-1|


__________________________________________________________


!!!!Riff 1!!!!

e|-------------------------------------------------3^|
B|----------------------------------------------14---|
G|------------10^-13-------------------------16------|
D|-7--8-8/12-------------14-14\-5-2-0-0--15----------|
A|-5--6-6/10-------------12-12\-3-2-0-0--12----------|
E|-5--6-6/10-------------12-12\-3-0-0-0--12----------|

__________________________________________________________

!!!!Solo Guitar 2!!!!

e|--------------14-15p13-------------------------15^-|
B|-----11-13/17----------13--------------------------|
G|-7h9----------------------13-----------------------|
D|-----------------------------13----------10h13-----|
A|--------------------------------10-----7-----------|
E|-----------------------------------9-8-------------|
[ Tab from: http://www.guitartabs.cc/tabs/s/system_failure/what_is_this_tab_ver_2.html ]
__________________________________________________________

!!!!solo cont...!!!!

e|-17^-----------------------------------------------|
B|-----13-15-15-17p13--------------------------------|
G|--------------------13-10\5------------------------|
D|----------------------------3----------------------|
A|------------------------------3-----------------3--|
E|--------------------------------2^-2^-3h5-0-0-1----|

__________________________________________________________

!!!!Outro!!!!

e|---------------------------------------------------|
B|---------------------------------------------------|
G|---------------------------------------------------|
D|-2-3-x-x-3-4-5--LET--------------------------------|
A|-2-3-x-x-3-4-5---RING------------------------------|
E|-2-3-x-x-3-4-5-------------------------------------|


__________________________________________________________


!!!!Song Map!!!!

Chorus  x3
Riff 1  x2
Chorus  x4
Solo
Riff 1  x2
Chorus  x3
Outro

__________________________________________________________

!!!!Guitar Notation!!!!

e|--15^-----|
B|----------|
G|----------|

 -Bend String-

e|--3h5-----|
B|----------|
G|----------|

 -Hammer On-

e|----------|
B|---13p10--|
G|----------|

 -Pull Off-

e|----------|
B|----------|
G|---10/13--|

 -Slide Up-

e|----------|
B|-7\3------|
G|----------|

 -Slide Down-

e|-x-x------|
B|-x-x------|
G|-x-x------|

 -String Mute-
Comments