Symposium - Smiling Chords & Tabs

 

Smiling Chords & Tabs

Symposium Chords & Tabs

Version: 1 Type: Tab 0 ratings
1 star 2 stars 3 stars 4 stars 5 stars
comments

Smiling Tab

   
Symposium 
Smiling

Tabbed by danny clipson  danny.clipson@uk.dreamcast.com.
  
intro

x------------------I---------------I-----------------I
x---1-----3---1----I--------3------I-----1---3---1---I
x-----0-----0---0--I----2-------2--I-------2---2---2-I
x-------2----------I-----2----2----I-----------------I
x-3----------------I--0------------I---3-------------I
x------------------I---------------I-1---------------I

x-------3---------x
x---------3-------x
x-----------4-----x
x-----5-----------x
x---5-------------x
x-3---------------x

fill
x---------------------------x
x---------------------------x
x-----0-1-0--------0-3-0----x
x---2-------2----2-------2--x
x-3-----------3-------------x
x---------------------------x

[ Tab from: http://www.guitartabs.cc/tabs/s/symposium/smiling_tab.html ]
verse:
     sit down      stand up     walk     around 
x----------------------------------------------------
x-5-------------3------------5--------3--------------
x-5-------------3------------5--------3--------------
x-5-------------3------------5--------3--------------
x-3-------------1------------3--------1--------------
x----------------------------------------------------


chorus
c5  a5  f5  g5

c5:         a5:         f5:       g5
x----x       x----x      x----x    x----x
x----x       x----x      x----x    x----x  
x-5--x       x----x      x----x    x----x  
x-5--x       x-7--x      x-3--x    x-5--x
x-3--x       x-7--x      x-3--x    x-5--x
x----x       x-5--x      x-1--x    x-3--x 

:: Ultimate Guitar Archive :: 
http://www.ultimate-guitar.com 



Comments