Symposium - One Day At A Time Chords & Tabs

 

One Day At A Time Chords & Tabs

Symposium Chords & Tabs

Version: 1 Type: Tab 0 ratings
1 star 2 stars 3 stars 4 stars 5 stars
comments

One Day At A Time Tab

Symposium , One Day at a time
Mike McConnell
-Symposium
-One Day At A Time
-Tab transcribed by Alpha1 (alpha1@intense.screaming.net)

______________________________________________________________________________________

KEY:
/  = slide up
PM = palm mute
______________________________________________________________________________________


INTRO:
(Chords only)
(Rhythm and strumming patterns are NOT shown)

(Clean)
e|-----------------------|-----------------------|
B|-----------------------|-----------------------|
G|----------------6---4--|----------------6---4--|
D|--2----7---2----6---4--|--2----7---2----6---4--|
A|--2----7---2----4---2--|--2----7---2----4---2--|
E|--0----5---0-----------|--0----5---0-----------|

(Distortion)
e|-----------------------|-------------------|
B|-----------------------|-------------------|
G|----------------6---4--|-------------------|
D|--2----7---2----6---4--|--2----7---2----2--|
A|--2----7---2----4---2--|--2----7---2----2--|
E|--0----5---0-----------|--0----5---0----0--|

______________________________________________________________________________________


VERSE:
(Chords only)
(Rhythm and strumming patterns are NOT shown)

e|-----------------------|-----------------------|
B|-----------------------|-----------------------|
G|----------------6---4--|----------------6---4--|
D|--2----7---2----6---4--|--2----7---2----6---4--|
A|--2----7---2----4---2--|--2----7---2----4---2--|
E|--0----5---0-----------|--0----5---0-----------|

e|-----------------------|-------------------|
B|-----------------------|-------------------|
G|----------------6---4--|-------------------|
D|--2----7---2----6---4--|--2----7---2----2--|
A|--2----7---2----4---2--|--2----7---2----2--|
E|--0----5---0-----------|--0----5---0----0--|

REPEAT above

______________________________________________________________________________________


PRE CHORUS:

Rhythm Guitar:
(Chords only - Rhythm and strumming patterns are NOT shown)
e|----------------------------|-------------------------------|
B|----------------------------|-------------------------------|
G|--6----9--------------------|--6----9-----------------------|
D|--6----9---9----7----9---6--|--6----9---9----4----7--6---2--|
A|--4----7---9----7----9---6--|--4----7---9----4----7--6---2--|
E|-----------7----5----7---4--|-----------7----2----5--4---0--|
[ Tab from: http://www.guitartabs.cc/tabs/s/symposium/one_day_at_a_time_tab.html ]
Lead Guitar:
(Rhythm is NOT shown correctly)
e|-----------------------------------------------------------|
B|--/9--9--9-9-9-7--7-7-7-7-7-7------------------------------|
G|-------------------------------9--9--9-9-9-8--8-8-8-8-8-8--|
D|-----------------------------------------------------------|
A|-----------------------------------------------------------|
E|-----------------------------------------------------------|

e|-----------------------------------------------------------|
B|--/9--9--9-9-9-7--7-7-7-7-7-7------------------------------|
G|-----------------------------------------------------------|
D|-------------------------------4--4--7-6--2---2-2-2-2-2-2--|
A|-------------------------------4--4--7-6--2---2-2-2-2-2-2--|
E|-------------------------------2--2--5-4--0---0-0-0-0-0-0--|
                                             PM|...........|  

______________________________________________________________________________________


CHORUS:
(Chords only)
(Rhythm and strumming patterns are NOT shown)

e|------------------------|--------------------|
B|------------------------|--------------------|
G|------------9-----6--4--|--------------------|
D|--7----9----9--6--6--2--|--7----9----6----6--|
A|--7----9----7--6--4--2--|--7----9----6----6--|
E|--5----7-------4--------|--5----7----4----4--|

e|------------------------|------------------|
B|------------------------|------------------|
G|------------9-----6--4--|------------S--9--|
D|--7----9----9--6--6--2--|--7----9----T--9--|
A|--7----9----7--6--4--2--|--7----9----O--7--|
E|--5----7-------4--------|--5----7----P-----|

______________________________________________________________________________________

REPEAT VERSE
REPEAT PRE-CHORUS
REPEAT CHORUS
______________________________________________________________________________________


BRIDGE:
(Rhythm NOT shown correctly)

e|----------------------------|
B|----------------------------|
G|----------------------------|
D|--4--6-7--4--2-2-2-2-2-2-2--| X3
A|--4--6-7--------------------|
E|--2--4-5--------------------|

e|----------------------------|
B|----------------------------|
G|----------------------------|
D|--4--7-6--2--2-2-2-2-2-2-2--|
A|--4--7-6--2--2-2-2-2-2-2-2--|
E|--2--5-4--0--0-0-0-0-0-0-0--|
            PM|.............|

______________________________________________________________________________________


REPEAT CHORUS but end with this chord:

e|-----|
B|-----|
G|--9--|
D|--9--|
A|--7--|
E|--0--|

______________________________________________________________________________________


Comments