Symposium - Fear Of Flying Chords & Tabs

 

Fear Of Flying Chords & Tabs

Symposium Chords & Tabs

Version: 1 Type: Tab 0 ratings
1 star 2 stars 3 stars 4 stars 5 stars
comments

Fear Of Flying Tab

Symposium , Fear of Flying
Mike McConnell
**UNFINISHED**

-Symposium
-Fear Of Flying

INTRO (part 1):
(Acoustic)
 _____________X3_______________
e|-----------------------------|--7----------------------------|
B|-------------7---------------|--7--10--9-7--10--9--7---------|
G|-----9--8h9-----9--8h9--8h9--|------------------------9p8h9--|
D|-----------------------------|-------------------------------| X2
A|-----------------------------|-------------------------------|
E|--0--------------------------|-------------------------------|

_______________________________________________________________________________________


INTRO (part 2):
(Electric)

Lead Guitar:
  ____________X3_______________
e|-----------------------------|--7----------------------------|
B|-------------7---------------|-----10--9-7--10--9--7---------|
G|-----9--8h9-----9--8h9--8h9--|------------------------9p8h9--|
D|--9--------------------------|-------------------------------|
A|-----------------------------|-------------------------------|
E|-----------------------------|-------------------------------|

 _____________X3_______________
e|-----------------------------|--7----------------------------|
B|-------------7---------------|-----10--9-7--10--9--7---------|
G|-----9--8h9-----9--8h9--8h9--|------------------------9p8--9-|
D|--9--------------------------|-------------------------------|
A|-----------------------------|-------------------------------|
E|-----------------------------|-------------------------------|

_______________________________________________________________________________________

VERSE - Have not figured out.
_______________________________________________________________________________________


CHORUS 1:
(Chords only)
(Rhythm and strumming patterns are NOT shown)
[ Tab from: http://www.guitartabs.cc/tabs/s/symposium/fear_of_flying_tab.html ]
e|--------------------|--------------------|
B|--------------------|--------------------|
G|--------------------|--------------------|
D|--7----9----2---11--|--7----9---14---11--|
A|--7----9----2---11--|--7----9---14---11--|
E|--5----7----0----9--|--5----7---12----9--|
              PM

e|--------------------|--------------------|
B|--------------------|--------------------|
G|--------------------|--------------------|
D|--7----9----2---11--|--7----9----2----7--|
A|--7----9----2---11--|--7----9----2----7--|
E|--5----7----0----9--|--5----7----0----5--|
              PM                   PM

_______________________________________________________________________________________
		

CHORUS 2:
(Chords only)
(Rhythm and strumming patterns are NOT shown)

e|--------------------|--------------------|
B|--------------------|--------------------|
G|--------------------|--------------------|
D|--7----9----2---11--|--7----9---14---11--|
A|--7----9----2---11--|--7----9---14---11--|
E|--5----7----0----9--|--5----7---12----9--|
              PM

e|--------------------|-----------------|
B|--------------------|-----------------|
G|--------------------|-----------------|
D|--7----9----2---11--|--7----9----2----|
A|--7----9----2---11--|--7----9----2----|
E|--5----7----0----9--|--5----7----0----|
              PM                   PM

_______________________________________________________________________________________


SOLO:

e|-------------------------------|-----------------------------|
B|-------------------------------|-----------------------------|
G|-------------------------------|-----------------------------|
D|-------------------------------|9--7-----------9--7----------| X4
A|-9--7-----------9--7-----------|------9--9-(9)-------9--9-(9)|
E|-------5--5-(5)-------5--5-(5)-|-----------------------------|

_______________________________________________________________________________________


CHORUS 3: Same as CHORUS 1

_______________________________________________________________________________________




Comments