Symphony X - The Odyssey Chords & Tabs

 

The Odyssey Chords & Tabs

Symphony X Chords & Tabs

Version: 1 Type: Tab 0 ratings
1 star 2 stars 3 stars 4 stars 5 stars
comments

The Odyssey Tab

   
Symphony X
The Odyssey - The Odyssey

Introduction:

--------------------------------------------------------------|
--------------------------------------------------------------|
--7-------------7------------------7--------------------------|
--7-------------7------------------7------------0-----7-5-3-7-|
--5-------------5------------------5--------------------------|
----------------------------3-3-3-----------------------------|


-------------- ----------------------------------------------|
-------------- ----------------------------------------------|
/7------3----- ----------------------------------------------|
-------------- ----4--------------4----------------4---------|
-------------- ----4--------------4----------------4---------|
-------------- ----2--------------2--------0-0-0---2---------|


-------------------------------------------------------------|
-------------------------------------------------------------|
-------------------------------------6--------------2--------|
-4-----------------------------------6--------------2--------|
-4--------/4--------4-4-4-4----4-4-4-4--------4-4-2-0--------|
-2-----------------------------------------------------------|


------------------------------------------  -----------------|
------------------------------------------  -----------------|
----------------3------3-4------3-4-6vib--  -----------------|
-1-2---/4--/6--------6--------------------  --/6--4----------|
------------------------------------------  -------------5---|
------------------------------------------  -----------------|


-------------------------------------------------------------|
-------------------------------------------------------------|
-------5-----------------------------------------------------|
-4--7---------6/7/6p4----------------------------------------|
--------------------------/5-6-----slide---------------------|
-------------------------------------------------------------|


Punchs 1
-------------------------------------------------------------|
-------------------------------------------------------------|
-7-----7-7-----7-----7-----7-7----7----7-7----7-----7---7-7--|
-7-----7-7-----7-----7-----7-7----7----7-7----7-----7---7-7--|
-5-----5-5-----5-----5-----5-5----5----5-5----5-----5---5-5--|
-------------------------------------------------------------|


---------------------- --------------------------------------|
---------------------- -----10p9p7---------------------------|
-7-7-7------7-----7--- -------------8p7p5--------------------|
-7-7-7------7-----7--- -------------------7p6p4--------------|
-5-5-5------5-----5--- --------------------------6p5p3-------|
---------------------- --------------------------------------|


-------------------------------------------------------------|
-------------------------------------------------------------|
-7-----7-7-----7-----7-----7-7----7----7-7----7-----7---7-7--|
-7-----7-7-----7-----7-----7-7----7----7-7----7-----7---7-7--|
-5-----5-5-----5-----5-----5-5----5----5-5----5-----5---5-5--|
-------------------------------------------------------------|


---------------------- ----------------10------------- ------|
---------------------- ------------9------9----------- --->--|
-7-7-7------7-----7--- -------7------7--------7------- ---7/-|
-7-7-7------7-----7--- --/6-----6-------------7------- ---7/-|
-5-5-5------5-----5--- -----5-----------------5------- ---5/-|
---------------------- ------------------------------- ------|


----------------------------------   ------------------------|
----------------9h10vib-----------   ---------/2-------------|
-7vib-------7---------------------   --/4-3-1----4-3-4-------|
---------7------------------------   ------------------------|
----------------------------------   ------------------------|
----------------------------------   ------------------------|


Rythm 1
-------------------------------------------------------------|
-------------------------------------------------------------|
-7-----------------------------------------------------------|
-7-----------------------------------------------------------|
-5---------5-5-5-------5-----5----5-5-5--5-5-5--4-4-4--4-4-4-|
-------------------------------------------------------------|

Rythm 2 (x2)
-------------------------------------=-----------------------|
-------------------------------------=-----------------------|
-------------------------------------=-----------------------|
-------------------------------------=-----------------------|
-4-----------------------------------=-----------------------|
-2-----2-2-2---2---2---2-2-2---2-2-2-=-2-2-2---2---2-2-2-----|

                       Lead 1
---------------------- --------------------------------------|
---------------------- ----------------------/7--------------|
---------------------- -/9--8h--9p8p6------------9-8-9-------|
----------2-2-2-2----- --------------------------------------|
--4------------------- --------------------------------------|
--2---2--------------- --------------------------------------|


-------------------------------------------------------------|
--------------------------------------------------/7---------|
-/9--8h--9p8p6-----6-7vib-------/9--8h--9p8p6--------9-8-9---|
-----------------9-------------------------------------------|
-------------------------------------------------------------|
-------------------------------------------------------------|


-------------------------------------------------------------|
-----------------------7-7-----------7-7-8-------------------|
-/9--8h--9p8p6-----7-9-----------7-9---------9---------------|
----------------------------------------------------/7-------|
-------------------------------------------------------------|
---------------------------------------------------------5---|




SOLO 1
------------------------------------------------ ------------|
------------------------------------------------ ------------|
------------------------------------------------ ------------|
-/4--------/4------4-5-----------/7-----5------- --/4--------|
-----------------------7------------------7----- ------------|
--------5--------------------5------------------ --------5---|


---------------------------------------- --------------------|
---------------------------------------- --------------------|
---------------------------------------- --------------------|
---/4------4-5----------/7------5------- --/4-------/4-------|
---------------7-------------------7---- --------------------|
--------------------5------------------- --------5-----------|

-------------------------------------------------------------|
-------------------------------------------------------------|
--------------/8---7---5--4--------/4-----------4-------/4---|
-4-5--7-8-------------------------------8---6-8--------------|
--------------------------------6--------------------6-------|
-------------------------------------------------------------|

--------------------------------- ------/15----------15------|
--------------------------------- ---------------------------|
---------/4---------------------- -/15-----------15----------|
--8--6-8-------8--6--4----h6p4/3- ---------------------------|
--------------------------------- ---------------------------|
--------------------------------- ---------------------------|


-15-16-13vib-------/18------16-13-15---------15---15-16-13----|vib
--------------------------------------------------------------|
---------------15----------------------15---------------------|
--------------------------------------------------------------|
--------------------------------------------------------------|
--------------------------------------------------------------|


-----/18------16-13-15--------15-------15-16-18-19-----------|
-------------------------------------------------------17----|
-15----------------------15----------------------------------|
-------------------------------------------------------------|
-------------------------------------------------------------|
-------------------------------------------------------------|


-------------------------------------------------------------|
--16----14---13-------/13-------12------/13--------/13----12-|
-----------------------------------14------------------------|
-----------------/14-------------------------/14-------------|
-------------------------------------------------------------|
-------------------------------------------------------------|


------------------------ -t16--p12t16p12---------------------|
-----/13--12------------ ---------------t12-t17p12p9--t12p9--|
-14------------14p13---- ------------------------------------|
------------------------ ------------------------------------|
------------------------ ------------------------------------|
------------------------ ------------------------------------|


-------------------------------------------------------------|
-p5-h9t12p9--------------------------------------------------|
----------------------------------------/2-------------------|
-------------t9p6p0--2p0h2p0h2p0h2p0-------------------------|
-------------------------------------------------------------|
-------------------------------------------------------------|




Acoustic 1


Order :  <1. 2.> (x6) 2. 3. 2. 2. then 4...

1.
-----0-------0-----------5-------5--------0---------0---|
-----1-----3---3------3-------3----3------1------3----3-|
-----2------------------------------------2-------------|
---2----/4--------5-------4-------------2----/4---------|
-0-----------------------------------0------------------|
--------------------------------------------------------|


2.			       3.  4.
--5--------3------2------0---- --- -----------3---------|
----5--------3------3-------3- --- -5-----3-----6-5-----|
--5---5----4---4--2---2--2---- --- ---5-----4-----------|
------------------------------ --- -5---5-5-------------|
------------------------------ -0- ---------------------|
------------------------------ --- ---------------------|

5.
---------0------------0----------------------------0----|
-----3-----3------3-----3------3------3-------3-------3-|
---2---2--------0---0-----------------------2---2-------|
-0---------------------------3------5-----0-------------|
--------------3------------1------3---------------------|
--------------------------------------------------------|

6.
--------------------------------------------------------|
---------1-----------1-------------1--0--1--0-----------|
-------2---2-----0-----0-----0--------------------2-----|
-----3---------2---2-------0---0---2--0--2--0---5---5-3-|
---3---------3------------------------------------------|
-1-----------------------3------------------------------|

repeat 5.

7.
--------------------------------------------------------|
----------1------------3--------------3------3--2-------|
--------2---2--------4---4-------2------2---------2-----|
------3-----------5------------2---2-------2--------2---|
----3-----------5-----------0---------------------------|
--1-----------3-----------------------------------------|

Acoustic modulation


-----1------3--------5------3---------1------3----------|
--------------------------------------------------------|
---2------4---4----5------4---4-----2------4----4-------|
-0------0--------0------0--------0-------0--------------|
--------------------------------------------------------|
--------------------------------------------------------|


-5-------3-----------------------------------------------|
---6-------5---6-3-5-3-5------3-------1---3--------------|
-----7-------5-----------5------4-------2---4------------|
---------------------------5------5----------------------|
---------------------------------------------------------|
---------------------------------------------------------|

Order: <1. 2.>(x4) + 2.


--------------------------------------------------------|
--------------------------------------------------------|
-2--------------------------------7----5----3---5---7---|
-2----/7-5--4-------------p.m-----7----5----3---5---7---|
-0------------7---/7-5----3-0-----5----3----1---3---5---|
--------------------------------------------------------|


---------------------------------------------------------|
---------------------------------------------------------|
-------------2-------7---5---3---5---7-------------------|
-3--5--5---5---5--3--7---5---3---5---7----3--5--7----7---|
-3--3--5-------------5---3---1---3---5----3--5--7--------|5..
-1-----3----------------------------------1--3--5--------|



Riff synth x2

---------------------------------------------------------|
---------------------------------------------------------|
-----7---8-7-5------------7----8-7-5-------------------7-|
---7---7-------8-7-5----7---7--------8-7-5-7-5-------7---|
-5--------------------5------------------------8-6-5-----|
---------------------------------------------------------|


--------------------------------------------------------|
--------------------------------------------------------|
---8-7-5----------7---8-7-5-0-7-0-8-0-11vib!------------|
-7------8-7-5---7---7-----------------------------------|
--------------5-----------------------------------------|
--------------------------------------------------------|

then..
--------------------------------------------------------|
--------------------------------------------------------|
---------5-7-5---5--------------------------------------|
-0-5-7-8-------8---8-7-5----------4-5-4---4-------0-5-7-|
--------------------------0-3-5-6-------6---6-5-3-------|
--------------------------------------------------------|


--------------------------------------------------------|
--------------------------------------------------------|
---5-7-5---5-------------------------------7-8-7-8-11-8-|
-8-------8---8-7-5---------4-5-4-5-7-8-7-8--------------|
-------------------0-3-5-6------------------------------|
--------------------------------------------------------|


----------------------------|
----------------------------|
-7--------8-7-5-------------|
---10-8-7-------8-7-5-4p.a--|
----------------------------|
----------------------------|


---------------------------------------------------------|
---------------------------------------------------------|
-----7---8-7-5------------7----8-7-5-------------------7-|
---7---7-------8-7-5----7---7--------8-7-5-7-5-------7---|
-5--------------------5------------------------8-6-5-----|
---------------------------------------------------------|


--------------------------------------------|
--------------------------------------------|
---8-7-5----------7---8-7-5-----------------|
-7------8-7-5---7---7-------8-7-5-7-5-------|
--------------5-----------------------8-6---|
--------------------------------------------|



Punchs 2

------------------5-5--5--x--8--8-----------------------|
------------------6-6--6--x--9--9-----------------------|
------------------7-7--7--x--10-10----------------------|
--------------------------------------------------------|
-0-0-0-0-1p0-0-0-------------------0-0-0-0-1p-0-0-0-1p0-|
--------------------------------------------------------|


-----5-5--5--x--8--8---4-4--4--5-5--5--7-7--7--10-10--10-|
-----6-6--6--x--9--9---5-5--5--6-6--6--8-8--8--11-11--11-|
-----7-7--7--x--10-10--6-6--6--7-7--7--9-9--9--12-12--12-|
---------------------------------------------------------|
-1p0-----------------------------------------------------|
---------------------------------------------------------|


-6-6--6----7-7--7-----8----------------------------------|
-7-7--7----8-8--8-----9----------------------------------|
-8-8--8----9-9--9-----10---------------------------------|
--------------------------3------------------------------|
--------------------------3------------------------------|
--------------------------1-1-1-1-----1-1-1-1----1-1-1-1-|


--------------------------------------------------------|
--------------------------------------------------------|
--------------------------------------------------------|
--------------------------------------------------------|
--------------------------------------------------------|
-1-1-1-1------1-1-1-1------1-1-1-1------1-1-1-1---------|


--------------------------------------------------------|
--------------------------------------------------------|
--------------------------------------------------------|
------------------3-3-3--2-2-2--------------------------|
-------------------------------3-3-3-4-----4-4-4-4------|
-1-1-1-1------------------------------------------------|


--------------------------------------------------------|
--------------------------------------------------------|
---------------------------------------6----4----2------|
---------------------------------------6----4----2------|
-4-4-4-4----4-4-4-4---4-4-4-4----4-4-4-4----2----0------|
--------------------------------------------------------|

Lead 2                                     x4
------9-/7--------5/3--------------------- -------------|
----------------------------7/5-------3/2- -------------|
--7/9---/7----4/6--/4--------------------- -------------|
------------------------5/7---5---2/4---2- -------------|
------------------------------------------ 7-7---3--5---|
------------------------------------------ 5-5---1--3---|




Lead 3 (x2)

-------------------------7h9-------/13-12-13-15-/12-9----|
----------------------10-----10-----------------------10-|
-9-10-6------------10-----------9------------------------|
--------7----7--10---------------------------------------|
-----------8---------------------------------------------|
---------------------------------------------------------|

			End 1
----------------13-15-- -17-15-13-12--------------------|
-------------13-------- -------------15-14--------------|
-9--------14----------- -------------------15-14-12-----|
----14/15-------------- ----------------------------15--|
----------------------- --------------------------------|
----------------------- --------------------------------|

                    Lead 3 but 2 fret lower + End 2

-------------------I-End 2=---15vib--17vib--13h17p13vib-|
-------------------I------------------------------------|
-------------------I------------------------------------|
14-12-11-----------I------------------------------------|
--------13-12-10---I------------------------------------|
-------------------I------------------------------------|


---------------------------------------------------------|
---------------------9--8-9-11---------------------------|
-8----------------9-------------6-8-9---------6-8--------|
---9-8-6------6-9----------------------6-8-9-------9-8-6-|
-----------7---------------------------------------------|
---------------------------------------------------------|

                    Lead 4    repeat on 2 lower octaves
----------12--16--- -18-15h16h18p16p15-------------------|
-------12---------- -------------------17-14h16h17p16p14-|
----13------------- -------------------------------------|
/14---------------- -------------------------------------|
------------------- -------------------------------------|
------------------- -------------------------------------|



SOLO 2
------------------------------------------------|
------/4-7--------------------------------------|
-6b2-------6b2vib---4h6p4---4/3-----------------|
--------------------------6-----4/6--4h6p4------|
-------------------------------------------5-4--|
------------------------------------------------|


------------------------------------------------|
------------------------------------------------|
----------------------------------------------9-|
-----------------------6-/8h11p9----8h9h11/13---|
-------------6h7h9-7h9-----------11-------------|
-7-4------/9------------------------------------|


---------------------9--12-14p12p11-------------|
-----------9h11p9h12----------------14p12----11-|
-13p11-9-11-------------------------------13----|
------------------------------------------------|
------------------------------------------------|
------------------------------------------------|


------------------------------11h14t16-p14p11---|
12----------------------------------------------|
---13-11---------------11h13--------------------|
---------13--------13---------------------------|
------------11--14------------------------------|
------------------------------------------------|


---------11h14t19p14p11---22b1------------------|
------------------------------------------------|
13p11h13----------------------------------------|
------------------------------------------------|
------------------------------------------------|
------------------------------------------------|


------------------------------------------------|
------------------------------------------------|
-5----------------------------------------------|
-5----------------------------------------------|
-3---3-3--3-3-3-3--3-3-3-3--3-3-3-3--6-----8----|
-------------------------------------4---4-6--6-|


-------------------------------------------------|
-------------------------------------------------|
-5----------------------5------------------------|
-5----------------------5------------------------|
-3---3-3--3-3-3-3--3-3--3--3-3--3-3-3-3--3-3-3-3-|
-------------------------------------------------|


-------------------------------------------------|
-------------------------------------------------|
-------------------------------------------------|
---------------------5---------------------8---8-|
3-3-3-3--6-----8-----3---3-3--3-3-3-3--3-3-6---6-|
---------4---4-6--6------------------------------|


------------------------------------------------|
------------------------------------------------|
------------------------------------------------|
--4-6-----8---8----4-6----8---8---4-6-4---6-----|
--2-4-----6---6----2-4----6---6---2-4-2---4---4-|
----------------------------------------------2-|



Punchs 3
--------------------------------------------------------|
------------------------------------3...4...1..2--------|
--------------------------------------------------------|
-----4-4---4-4-------4-4---4-4--4-4---------------------|
-4---4-4---4-4---4---4-4---4-4--4-4---4---4-x-----------|
-2---2-2---2-2---2---2-2---2-2--2-2---2---2-x-----------|

Rythm 3 (x2)
---------------------------------------------------------|
---------------------------------------------------------|
---------------------------------------------------------|
---------------------------------------------------------|
-4---------------------------------------------------1-2-|
-2----2-2----2-2----2-2----2-2----2-2----2-3-2-0-2-3-----|


--------------------------------------------------------|
-------------------------------------------------->-----|
--------------------------------------------------5-----|
----------------------------------------------5---5-----|
4-2-1-----------------------------------------3-3-3-3-3-|
------3-2---2-2----2-2----2-2----2-2----2-2-------------|


---------------------------------------------------------|
---------------------------------------------------------|
---------------------------------------------------------|
---------------------------------------------------------|
-----------------------------------------------------1-2-|
-2----2-2----2-2----2-2----2-2----2-2----2-3-2-0-2-3-----|

				            Box 1
------------------------------------------- -------------|
------------------------------------------- -------------|
------------------------------------------- -5---5(5)5-5-|
------------------------------------------- -5---5p4-4-4-|
4-2-1-------------------------------------- -3-3-3(3)3-3-|
------3-2---2-2----2-2----2-2----2-2----2-2 -------------|


---------------|
---------------|
-5---5(5)5-5---|
-5---5p4-4-4---|
-3-3-3(3)3-3---|
---------------|

Box 2... (2nd take)
-count--------------------------------------------------|
-1-2-3-4-5-6-1/2-1--etc..-------------------------------|
--------------------------------------------------------|
-5---------7-----5-----7----5---------7----5-----7------|
-5---------7-----5-----7----5---------7----5-----7------|
-3---------5-----3-----5----3---------5----3-----5------|

Rythm 4 (x2)                               vamp
----------------------------------------- --------------|
----------------------------------------- --/8big vib---|
----------------------------------------- --/7----------|
-----6-5-----------------6-5------------- ---5----------|
-4---4/3---4---5/8---4---4/3---4---5-8--- --------------|
-2-0-----0-2-0-3/6---2-0-----0-2-0-3/6-0- --------------|

Rythm 5 (x2)
--9---9-9---8---8-8---9---9-9---8---8---8---------------|
--7---7-7---7---7-7---7---7-7---7---7---7---------------|
--6---6-6---5---5-5---6---6-6---5---5---5---------------|
--------------------------------------------------------|
--------------------------------------------------------|
--------------------------------------------------------|
[ Tab from: http://www.guitartabs.cc/tabs/s/symphony_x/the_odyssey_tab.html ]
Lead 5
--------------------------------------------------------|
--------------------------------------------------------|
-6---5--3-----------------------------------------------|
---4------5-4-2-4------2--------------------------------|
--------------------4-------5---4---3---1---------------|
-------------------------3--------2-------3-2-0---------|


Rythm 6 (x4+fill1) (x2 fill2 )
-------------------------------------------------------------|
-------------------------------------------------------------|
-------------------------------------------------------------|
-------------------------------------------------------------|
-------------------------------------------3-3-3-3-----------|
-3p2-3p2-3p2-3p2--0-0-0-0--3p2-3p2-3p2-3p2----------3p2-3p2--|


-------------------------------------------------------------|
-------------------------------------------------------------|
-------------------------------------------------------------|
-------------------------------------------------------------|
-------------------------------------------------------------|
-3p2-3p2-0-0-0-0---3p2-3p2-3p2-3p2-----2p0-3h6---------------|


    Fill 1 	             Fill 2
    ------------------------ --------14---------------------|
    -12b2r-12b2r-p10p9h10vib -17b2r-----17-14---------------|
    ------------------------ -----------------16-15---------|
    ------------------------ -------------------------------|
    ------------------------ -------------------------------|
    ------------------------ -------------------------------|

    Fill 3 				Fill 4
    ----------------------------------- --------------------|
    -17b2-17-14------------------------ ------7-------------|
    -----------17-16-17-16-14---------- -9b2r---9p6---------|
    --------------------------16-14-16- ------------9p8vib--|
    ----------------------------------- --------------------|
    ----------------------------------- --------------------|


Rythm 7 (x3)                        ext
----------------------------------- -------------------------|
--------------------4-------------- -------------------------|
--3---------6-------3-------------- ------------4------------|
--3---------6-------1----4--------- ---3--------4------------|
--1---------4------------4--------- ---3--------2--slide-----|
--------------------3----2---2-2-2- ---1---------------------|

*repeat Rythm 5 + Lead 5

*repeat Rythm 6 twice + Fill 3

*repeat Rythm 6 twice again + Fill 4

*repeat Rythm 7 & go to punchs 4



Punchs 4

A. (x9)           B.
----------------- --------------------------------------|
----------------- --------------------------------------|
----------------- ----------------3--4--6...------------|
----------------- ----------2--3------------------------|
----------------- ----1--2------------------------------|
-1p0-0-0-0-0-0-0- -0------------------------------------|

1.		  1a		 2.	     3.
----------------- -------------- ----------- -----------|
-----------5----- ----------5--- -------5--- -----5-----|
--6----6-5---6--- ---6----5---6- ---6-5---6- ---5---6---|
----4------------ -4---4-------- -4--------- -4---------|
----------------- -------------- ----------- -----------|
----------------- -------------- ----------- -----------|


Order: 1  1a  3 2 3 2  1a  3 2 2  tri

Lead 6
-15p12-------12p9------9p6-----6p3----------------------|
------t13--------t10------t7------t4--------------------|
---------t12--------t9------t6------t3------------------|
--------------------------------------------------------|
--------------------------------------------------------|
--------------------------------------------------------|


---------------------------------------------------------|
--------5-----------5----7h8p7p5-------------------------|
6---6-5---6---6-5-----6----------5h6p5p3-----------------|
--4---------4-----4----------------------4h5p4p2---------|
-------------------------------------------------3h4p3p1-|
---------------------------------------------------------|


--------------------------------------------------------|
--------------------------------------------------------|
--------------------------------------------------------|
---------2---------2-----------2-------------2--------2-|
-4---4-3---4-----3---4-----4-3---4-----4---3---4----3---|
---2-----------2---------2-----------2---2--------2-----|


----------------------------- ---------------------------|
-I============ x2 =========I- ---------------------------|
---------------------------5- 2h3p2p0h2--2-2-2-2-2h3p2p0-|
-4h5p4p2h4-----4h5p4p2h4----- ---------------------------|
-----------3-3-----------3--- ---------------------------|
----------------------------- ---------------------------|


--------------------------------------------------------|
--------------------------------------------------------|
2h3p2p0-2--2-2-2-2--2h3p2p0h2--2-2-2p0------------------|
---------------------------------------------------4h5--|
------------------------------------------3-3-3-3-------|
--------------------------------------------------------|


--------------------------------------------------------|
--------------------------------------------------------|
--------------------------------------------------------|
---------4h5-----4h5---------4h5---------4h5-----4h5----|
-3-3-3-3-----3-3-----3-3-3-3-----3-3-3-3-----3-3----3-3-|
--------------------------------------------------------|


--------------------------------------------------------|
--------------------------------------------------------|
--------------------------------------------------------|
-----4h5---------4h5-7---5---4--------------------------|
-3-3-----3-3-3-3---------------7---/7---6----4-3--------|
---------------------------------------------------2----|


--------------------------------------------------------|
--------------------------------------------------------|
--/6--5h6p5-----/9-8-6-8---6h8h9-vib--------------------|
------------7-------------------------------------------|
--------------------------------------------------------|
--------------------------------------------------------|



SOLO 3
---------------------------------------------|
---------------------------------------------|
-/8---------/6-------------------------------|
----------------9p8p6-------------6/8h9h11---|
----------------------9p8p4/6h8h9------------|
---------------------------------------------|


-------------------9h11p10----10vib-----/15--|
----------9h11h12----------11----------------|
--8-11h12------------------------------------|
---------------------------------------------|
---------------------------------------------|
---------------------------------------------|


-10h15p10---------/18-17-------18-13-13b1--11-|
----------------------------------------------|
----------------------------------------------|
----------------------------------------------|
----------------------------------------------|
----------------------------------------------|

              floyd
------8-/-6--(11)p.a--------------------------|
-------------(11)p.a-----/8----8-8-8----------|
-6/8-(8)/-6--(11)p.a-------------------5-5-5--|
----------------------------------------------|
----------------------------------------------|
----------------------------------------------|


---------------------------------------------|
---------------------------------------------|
-7-7-7-/-3-3-3/5-----------------------------|
-----------------5-3h5p3---------------------|
------------------------5-4-3---3------------|
------------------------------6---6-big vib--|

argh!
---------------------------------------------|
-------------------------------------8h10t15-|
------------------7h9t14---------7h9---------|
-------------------------7h9t14--------------|
-slide-5/7h10-t14----------------------------|
---------------------------------------------|


--------------7--10--t14p7h10--15t19p15------|
------10-------------------------------------|
-7-9-----------------------------------------|
---------------------------------------------|
---------------------------------------------|
---------------------------------------------|

                 prebend
t19p15p12--------22b2-drop-----19--/17-------|
----------------------------17---------15----|
---------------------------------------------|
---------------------------------------------|
---------------------------------------------|
---------------------------------------------|


---------------------------------------------|
--17p15--------------------------------------|
--------14/12-15p14--------------------------|
--------------------14-12-14-12--------------|
--------------------------------12-10--------|
--------------------------------------12p.a--|


---------------16vib with p.a----------------|
--------16-16--------------------------------|
-----13--------------------------------------|
---------------------------------------------|
--11-----------------------------------------|
---------------------------------------------|


----------------------------------------------|
----------------------------------------------|
-x-x-x--x-x-x-------------------9h11p9--------|
-x-x-x--x-x-x-----------9h10h12--------12p10p-|
-x-x-x--x-x-x-10p9h10h12----------------------|
-x-x-x--x-x-x---------------------------------|


---------------------------8-9h11--12p9-12/14--|
---------------------10h12---------------------|
--------9h11p9h11h12---------------------------|
9h10h12----------------------------------------|
-----------------------------------------------|
-----------------------------------------------|


-11h12h14h15-12--14h15-18--19--15h19p15------|
---------------------------------------------|
---------------------------------------------|
---------------------------------------------|
---------------------------------------------|
---------------------------------------------|

     hold     release
-22b1----20h22p20-----19-16h19p16-------------|
----------------------------------19-16-------|
----------------------------------------19-18-|
----------------------------------------------|
----------------------------------------------|
----------------------------------------------|


--------------19--(19)-----------------------|
----19b2-hold---r--19b2----------------------|
-16------------------------------------------|
---------------------------------------------|
---------------------------------------------|
---------------------------------------------|


Montée

--------------------------------------------------|
--------------------------------------------------|
--------------------------------------------------|
----------------------------3-4-3-------3-4-3-4-3-|
--2---6-4-2-----------2-4-6-------6-4-6-----------|
------------6-4-2-4-6-----------------------------|

---------------------------------------------|
---------------------------------------------|
-------------3-4-3-------3-4-3-4-3-------3-4-|
-------3-4-6-------6-4-6-----------6-4-6-----|
-6-4-6---------------------------------------|
---------------------------------------------|

---------4-6-7-6-4-------9-7-6-------11-9--------|
---4-6-7-----------7-6-4-------9-7-6------12-11--|
-6-----------------------------------------------|
-------------------------------------------------|
-------------------------------------------------|
-------------------------------------------------|

----13-11----------13-11-----------14-13-----|
-9--------14-12-11-------14-12-11--------16--|
---------------------------------------------|
---------------------------------------------|
---------------------------------------------|
---------------------------------------------|

--------16-14-13-------18-16----------19-18------------|
-14-12-----------16-14-------19-18-16-------21-19-18---|
----------------------------------------------------20-|
-------------------------------------------------------|
-------------------------------------------------------|
-------------------------------------------------------|

----------------------------------------------|
-------------------------------------------18-|
-18----------------------------------18-20----|
----21-20-18----------------18-20-21----------|
-------------21-20-18-20-21-------------------|
----------------------------------------------|

-------18-19-19b2---10---------12------------|
-19-21--------------13b2-------15b2----------|
---------------------------------------------|
---------------------------------------------|
---------------------------------------------|
---------------------------------------------|



Rythm 8 (x4)
-------------------------------------------------------------|
-------------------------------------------------------------|
-------------------------------------------------------------|
-4-------------------------5---4-----------------------------|
-----------------------------------------------5-5-4-3-------|
---2-2-2-2-2-0h3p2p0h2-2-2---2---2-2-2-0h3p2p0---------2-2-2-|


-------------------------------------------------------------|
-------------------------------------------------------------|
-------------------------------------------------------------|
-------------------------------------------------------------|
------------------------------5-5-4--1h2p1h2p1---------------|
-2-2-0h3p2p0h2-2-2-0h3h6p3p0----------------------3-2-0------|


Rythm 9 (x2)
-------------------------------------------------------------|
-------------------------------------------------------------|
-------------------------------------------------------------|
-4-----------------5---4-------------------------------------|
-----------------------------------5---4---4p3---3-----------|
---2-2-2-0-3-2-0-2---2---0-3-2-0-2---2---2-----2---2-0-3-2-0-|

                               A.         B.        c.
------------------------------ ---------- --------- ---------|
------------------------------ ----x2---- --------- ---------|
---------------3-------------- ---------- --------- ---------|
---------------3------------2- ---3---2-- -3-6-2-5- -3---6-2-|
---------5-1-1-1-----5------2- -5---4---- --------- ---------|
-0-2-3-3-3-------3-3-3--0-0-0- ---------- --------- ---------|


*Repeat Rythm 8, 9 & a. ,b.  (don't repeat d.)

then..
----------------------------|
----------------------------|
----------------------------|
-3-6------------------------|
-------7-----/7-6-5---------|
----------------------------|

Lead 7
---------------------------------------10-11-14-<15p14-14-14--|
---------------------------------10-11----------------x9------|
---------------------11-12-11-12------------------------------|
---------------12-13------------------------------------------|
-10-9-10-12-13------------------------------------------------|
--------------------------------------------------------------|


-15---14-11-10-----------------------------------------------|
---------------13-11-10--------------------------------------|
------------------------12----11-----------------------------|
---------------------------------13-12-10--------------------|
------------------------------------------13-12-10-----------|
-------------------------------------------------------------|

Punchs 5

-------------------------------------------------------------|
-------------------------------------------------------------|
----7----7-7-----7---7-7-----7----7--------------------------|
----7----7-7-----7---7-7-----7----7--------------------------|
----5----5-5-----5---5-5-----5----5--...---------------------|
-------------------------------------------------------------|

Rythm 10
---------------------------------- --------------------------|
----------------x-2--------------- ----------x-2-------------|
---------------------------------- --------------------------|
--------------------------5-4----- -----same riff 1 fret ----|
-------7-6-5------------5-----6-5- ---------lower------------|
-3-6-5-------6-2--3-6-5----------- --------------------------|

       Lead 8
------ ------------------------14-15vib----------------------|
------ -----------------15-16----------------15vib-----/18---|
p.m--- ----------14-15---------------------------------------|
5xx... -17-16-17---------------------------------------------|
------ ------------------------------------------------------|
------ ------------------------------------------------------|


-------------------17---17/19vib---17----------------19---21--|p
-14vib----/17vib------------------------18-19-----------------|
--------------------------------------------------------------|
--------------------------------------------------------------|
--------------------------------------------------------------|
--------------------------------------------------------------|


17vib---19--19/21vib-----19/21vib---20vib-----20/21vib---22b1-|
--------------------------------------------------------------|
--------------------------------------------------------------|
--------------------------------------------------------------|
--------------------------------------------------------------|
--------------------------------------------------------------|


-20vib--21--22vib--- ----------------------------------------|
-------------------- ----------------------------------------|
-------------------- -/3----5-------------/2-/3vib-/2vib-----|
-------------------- ----4-------0---0-----------------------|
-------------------- ---------5----0-------------------------|
-------------------- ----------------------------------------|

Punchs 6

-------------------------------------------------------------|
-------------------------------------------------------------|
----7---------7--------7---9---------------------------------|
----7---------7--------7---9------4----4----4----4----4----4-|
----5-----4-4-5----4-4-5---7------4----4----4----4----4----4-|
-------------------------------&--2-&--2-&--2-&--2-&--2-&--2-|


------------------ ------------------------------------------|
------------------ ------------------------------------------|
-I===== x3 ====I-- ------------------------------------------|
------------------ ------------------------------------------|
-5--4-3-2-1-2vib-- -5----4-3-2-1-----------------------------|
------------------ ------------------5-4-3-------------------|



Lead 9 (x2)
-------------------------------------------------------------|
-------------------------------------------------------------|
-/12-12--10----7-8-10----------------------------------------|
----------------------/10--12-/12----8p7----7h8-/12----------|
-----------------------------------------10------------------|
-------------------------------------------------------------|


-------------------------------------------------------------|
-------------------------------------------------------------|
---------------------------------------repeat with-----------|
--8p7----7h8-/12-10-8-/10---8h10-12----harmony-----(maj 3rd)-|
------10-----------------------------------------------------|
-------------------------------------------------------------|

Rythm 11
-------------------------------------------------------------|
-------------------------------------------------------------|
-------------------------------------------------------------|
-3-----------------------------------------------5-----------|
-3-----------------------------------------------6-----------|
-1---1-1-1---1-1-1---1-1-1---1-1-1---1-1-1---1-1-3---3-3-3---|


-------------------------------------------------------------|
-------------------------------------------------------------|
-------------------------------------------------------------|
---------------------8----------------3----------------------|
-----6---------------6--6-6-6---6-6---3----------------------|
-3-3-4---4-4-4--4-4-------------------1---3-3-3--3-3-3--3-3--|


--------------------------------------------------------------|
--------------------------------------------------------------|
--------------------------------------------------------------|
-6----6---------------------------6---------------------------|
-3----4--4-4-4--4-4-6-------------4--4-4-4--4-4-6-------------|
--------------------4--4-4-4--4-4---------------4--4-4-4--4-4-|

                               Box 1
------------------------------ ------------------------------|
------------------------------ ------------------------------|
------------------------------ -5----------------------5-----|
-5---------------------------- -5----------------------5-----|
-5---------------------------- -3---3-3-3---3-3-3--3-3-3-----|
-3---3-3-3---3-3-3--3-3-3--3-3 ------------------------------|

Box 2 (2nd take)
--------------------------|
--------------------------|
-5------------------------|
-5------------------------|
-3------------------------|
--------------------------|

SOLO 4
-------------12p11-------12/16/14--11-12-----|
-12b2---12b2-------12b2------------------12--|
---------------------------------------------|
---------------------------------------------|
---------------------------------------------|
---------------------------------------------|

          blues
----------------------9----------------------|
-12b2-------9-------9---12-9-11h12p11-9-11-9-|
--------------11b2---------------------------|
---------------------------------------------|
---------------------------------------------|
---------------------------------------------|


-------------/14--9---------------------------|
--------------------11-9----------------------|
-12-11-10----------------11-9-----------------|
------------------------------11-9------------|
-----------------------------------11-10-9----|
-------------------------------------------12-|


----------------------------------------------|
----------15----/12-/14----12--14--16-16b2----|
-------------11-------------------------------|
-11-12--------------------------------------3-|
--------------------------------------------3-|
--------------------------------------------1-|


delay effect....

----------------------------|
----------------------------|
--6---6--6------5--5--5-----|
--6---6--6------5--5--5-----|
--4---4--4------3--3--3-----|
----------------------------|


*Repeat Rythm with Box 1

Rythm 12
-------------------------------------------------------------|
-------------------------------------------------------------|
-------------------------------------------------------------|
-3-----------------------------------------------5-----------|
-3-----------------------------------------------6-----------|
-1---1-1-1---1-1-1---1-1-1---1-1-1---1-1-1---1-1-3---3-3-3---|


-------------------------------------------------------------|
-------------------------------------------------------------|
-------------------------------------------------------------|
---------------------8----------------3----------------------|
-----6---------------6--6-6-6---6-6---3----------------------|
-3-3-4---4-4-4--4-4-------------------1---3-3-3--3-3-3--3-3--|


--------------------------------------------------------------|
--------------------------------------------------------------|
--------------------------------------------------------------|
-6----6---------------------------6---------------------------|
-3----4--4-4-4--4-4-6-------------4--4-4-4--4-4-6-------------|
--------------------4--4-4-4--4-4---------------4--4-4-4--4-4-|


--------------------------------------------------------------|
--------------------------------------------------------------|
--------------------------------------------------------------|
-4------------------------------------------------------------|
-4------------------------------------------------------------|
-2---2-2-2---2-2-2----2-2-2---2-2-2----2-2-2---2-2-2----2-2-2-|


-------------------------------------------------------------|
-------------------------------------------------------------|
-------------------------------------------------------------|
-------------------------------------------------------------|
-------------------------------------------------------------|
--2-2-2---2-2-2----2-2-2---2-2-2---2-2-2---2-2-2----2-2-2----|


--------------|
--------------|
--------------|
--------------|
--------------|
--2-2-2---2-2-|


End!

--------------------------------------------------------------|
--------------------------------------------------------------|
-4------4---4---/4-2-------4-----4-----4--/4-2----------------|
-4------2---4--------6-4---4-----2-----4-------6-4----3--2----|
-2----------2--------------2---------2-2--------------------5-|
--------------------------------------------------------------|


--------------------------------------------------------------|
--------------------------------------------------------------|
----------------------------now, repeat-5---------------------|, 6., 5. and then 7.
-------3--------------------from the introduction-------------|
--3----3-----3-----5------------------------------------------|
-------1------------------------------------------------------|

                                                           up
-----------------------0------------4------------2------- -5-|
-------3-------------1---1------------4------2-----2----- -5-|
-----3---3---------0--------------5------------3-----3--- -7-|
---3-------3-----2--------------6----------4-----------4- -7-|
-1-------------3--------------6-------------------------- -5-|
----------------------------4------------2--------------- -5-|


finally done...
Comments