Symphony X - Out Of The Ashes Chords & Tabs

 

Out Of The Ashes Chords & Tabs

Symphony X Chords & Tabs

Version: 2 Type: Tab 0 ratings
1 star 2 stars 3 stars 4 stars 5 stars
comments

Out Of The Ashes Tab

                  Tablature of Solos - "Out Of The Ashes"

Transcriptions by Leopoldo Innecco for -=The Edge of Forever=- website
[leopoldo.i@usa.net]

E---------------------------------------------------------------------------------------------------------11--13---------
B-13--9---------------------------------------9--11--9-------9--11--13----------------11-13--14-----------13-----
G---------10-------10-----------9--10--12--------------12---------------10--12--13-----------------------------13-
D--------------10------10--10-------------------------------------------------------------------------------------------
A--------------------------------------------------------------------------------------------------------------------------
E--------------------------------------------------------------------------------------------------------------------------       



E-------13--11-----------------16--15--13--15-------12--13--12--13--15--13--12--------------------------------
B--13------------14--13--11----------------------15-------------------------------------14--13--11-----------------
G----------------------------------------------------------------------------------------------------------13--12--10-9-
D--------------------------------------------------------------------------------------------------------------------------
A--------------------------------------------------------------------------------------------------------------------------
E--------------------------------------------------------------------------------------------------------------------------                



E--------------------------------------------------------------------------------------------------------------------------
B-----9--13--9--14--9--14--9-----9--13--9-11/13--11---13--9----------------------------9--11--9----9--11-13
G-10-----------------------------10-------------------------9-------10---10--------9-10--12-----------12-----------
D-------------------------------------------------------------------------10---10--10-----------------------------------
A--------------------------------------------------------------------------------------------------------------------------
E--------------------------------------------------------------------------------------------------------------------------


                 
E---------------------------11--13---------13-11-------------16--15-13--15---12-13-12-13-15-13-12-----------
B---------------11-13--14--------13---13-------14--13--11-----------------15---------------------------14-13-11
G-10--12--13------------------------13---------------------------------------------------------------------------------
D--------------------------------------------------------------------------------------------------------------------------
A--------------------------------------------------------------------------------------------------------------------------
E--------------------------------------------------------------------------------------------------------------------------       


[ Tab from: http://www.guitartabs.cc/tabs/s/symphony_x/out_of_the_ashes_tab_ver_2.html ]
E--------------------------------------------------------------------------------------------------------------------------
B--------------------------------------------------------------------------------------------------------------------------
G-13--12--10--9-10----------------------------------------------------------------------------------------------------
D--------------------------------------------------------------------------------------------------------------------------
A--------------------------------------------------------------------------------------------------------------------------
E--------------------------------------------------------------------------------------------------------------------------       



E--------------------------------------------------------------------------------------------------------------------------
B-----9--13--9--14--9--14--9-----9--13--9-11/13--11-------13--8---8--9-------------------------8--------------
G-10-----------------------------10-------------------------9-(9)------10-----10--8--10-7-10-8--10--8--7--8-----
D----------------------------------------------------------------------------------------------------------------------10-
A--------------------------------------------------------------------------------------------------------------------------
E--------------------------------------------------------------------------------------------------------------------------       





E--------------------------------------------------------------------------------------------------------------------------
B-----------------------------------15--17--17--15--17--18--15----15----15----15--17----------------------------
G--8--7--8--10--7-----7-------------------------------------------17----16----17---------17--16--17--14--17-16 
D--------------------10----9-(9)-----------------------------------------------------------------------------------------
A--------------------------------------------------------------------------------------------------------------------------
E--------------------------------------------------------------------------------------------------------------------------       



E-----------------------------------13------------------------------------------------------------------------------------
B-----15------------------------15---17--15--13-----17--13----------------------------------13--15--13---13--15
G--17---16--14--16--13--16---------------------16----------14----14----------13--14--16-------------16--------
D---------------------------------------------------------------------14----14--14--------------------------------------
A--------------------------------------------------------------------------------------------------------------------------
E--------------------------------------------------------------------------------------------------------------------------       

E---------------------------------15--17---------17--15--------------20--19--17--19----16--17--16--17--19-17- 
B--17--------------15--17--18---------17---17--------18--17--15--------------------19----------------------------
G-----14--16--17--------------------------17---------------------------------------------------------------------------
D--------------------------------------------------------------------------------------------------------------------------
A--------------------------------------------------------------------------------------------------------------------------
E--------------------------------------------------------------------------------------------------------------------------



E--16---------------------------------------------------------------------------------------------------------------------
B-----18--17--15-----------------------18-( 18 )--------------------------------------18-( 18 )------------16-( 16 )
G-------------------17--16--14-( 14 )------------14-( 14 )-16-( 16 )---14 ( 14 )------------14---16------------
D--------------------------------------------------------------------------------------------------------------------------
A--------------------------------------------------------------------------------------------------------------------------
E--------------------------------------------------------------------------------------------------------------------------
Comments