Symphony X - Out Of The Ashes Chords & Tabs

 

Out Of The Ashes Chords & Tabs

Symphony X Chords & Tabs

Version: 2 Type: Bass Tab 0 ratings
1 star 2 stars 3 stars 4 stars 5 stars
comments

Out Of The Ashes Bass Tab

   
  "Out of the Ashes"
  From the album The Divine Wings of Tragedy by Symphony X  

  TAB by: Linus Abrahamson
  E-mail: mentalsjuk@yahoo.com

  Tuned down one whole step: 
  E-D, A-G, D-C, and G-F



     Intro
  F|-------------------------|--------------------------|
  C|-------------------------|--------------------------|
  G|-3--3--3--3--3--3--3--3--|-3--3--3--3--3--3--3--3-3-|
  D|-------------------------|--------------------------|

  F|-------------------------|---------------|
  C|-------------------------|---------------|
  G|-3--3--3--3--3--3--3--3--|-3--3--3-3-3-3-|
  D|-------------------------|---------------|

  F|-------------------------|-------------------------|
  C|-------------------------|-------------------------|
  G|-5-----3-----------------|-------4-----5-----------|
  D|-------------6-----2-----|-3-----------------------|

  F|-------------------------------------------|
  C|*------------------------------------4-----|
  G|*---------------------3--5-----5--7-----5--|
  D|-3--3--3--3--3--5--6--------5--------------|

  F|-------------------------------------------|
  C|-5--5-------------------------------------*|
  G|-------6--5--3--6-----4--5--6--5--3-------*|
  D|-------------------5-----------------6--5--|

  F|-------------------------|-------------------------|------------------------|
  C|-------------------------|-------------------------|------------------------|
  G|-------6-----------------|-5-----------4-----5-----|---------------------1--|
  D|-3-----------3-----5-----|-------3-----------------|-6-----3-----5----------|

  F|-------------------------|-------------------------|
  C|-------------------------|-------------------------|
  G|-2-----------1-----2-----|-------------------------|
  D|-------0-----------------|-3-----0-----2-----------|

  F|---------------------------------------------|
  C|---------------------------------------8-----|
  G|-----------------------7--9-----9--11-----9--|
  D|-7--7--7--7--7--9--10--------9---------------|

  F|-----------------------------------------------|
  C|-9--9------------------------------------------|
  G|-------10--9--7--10-----8--9--10--9--7---------|
  D|---------------------9------------------10--9--|

  F|--------------------------|--------------------------|--------------------------|
  C|--------------------------|--------------------------|--------------------------|
  G|-------10-----------------|---------10---------------|--------------------------|
  D|-7------------7-----9-----|---7------------7-----9---|-10-----------------------|


   
     Verse 1
  F|---------------------------------|---------------------------------|
  C|*--------------------------------|---------------------------------|
  G|*5h7-0-0-0-0-0-0-0-0-0-0-0-0-0-0-|-5h7-0-8p7-0-5h7-0-0-0-0-0-0-0-0-|
  D|---------------------------------|---------------------------------|

  F|---------------------------------|---------------------------------|
  C|---------------------------------|--------------------------------*|
  G|-5h7-0-0-0-0-0-0-0-0-0-0-0-0-0-0-|-5h7-0-8p7-0-5h7-0-0-0-0-0-0-0-0*|
  D|---------------------------------|---------------------------------|

    

     Pre-Chorus 1
  F|-----------------------------------------------------|
  C|*------------------------------------------------2-4*|
  G|*2-4-----2-4------------4-----2-4------------2-4----*|
  D|--------------3---0-2-3------------3---0-2-3---------|

  F|-----------------------------------------------------|
  C|-------------------------------------------------2-4-|
  G|-2-4-----2-4------------4-----2-4------------2-4-----|
  D|--------------3---0-2-3------------3---0-2-3---------|

  F|-----------------------|-----------------------|--------------------------------------|
  C|-----------------------|-----------------------|--------------------------------------|
  G|-----------------------|-----------------------|-4------------------------------------|
  D|-0----------0----------|-1----------1----------|--------------------------------------|



     Chorus 1
  F|---------------------------------|---------------------------------|
  C|---------------------------------|---------------------------------|
  G|-0-0-0-0-0-0-0-0-3-3-3-3-3-3-3-3-|-4-4-4-4-4-4-4-4-2-2-2-2-2-2-2-2-|
  D|---------------------------------|---------------------------------|

  F|---------------------------------|---------------------------------|
  C|---------------------------------|---------------------------------|
  G|---------------------------------|-4-4-4-4-4-4-4-4-4-4-4-4-4-2-----|
  D|-2-2-2-2-2-2-2-2-4-4-4-4-4-4-4-4-|-----------------------------5-4-|

  F|---------------------------------|---------------------------------|
  C|---------------------------------|---------------------------------|
  G|-0-0-0-0-0-0-0-0-3-3-3-3-3-3-3-3-|-4-4-4-4-4-4-4-4-0-0-0-0-0-0-0-0-|
  D|---------------------------------|---------------------------------|

  F|---------------------------------|---------------------------------|
  C|---------------------------------|---------------------------------|
  G|---------------------------------|---------------------------------|
  D|-2-2-2-2-2-2-2-2-3-3-3-3-3-3-3-3-|-4-4-4-4-4-4-4-4-4-4-4-4-4-4-4-4-|



     Bridge 1
  F|---------------------------|----------------------------|
  C|---------------------------|*--------------------------*|
  G|---------------------------|*3---3--3-3--3-3-3-3-3-3-3-*|
  D|-4---4---4--4-4-4-4-4-4-4--|----------------------------|

  F|----------------------------|-----------------------|
  C|----------------------------|-----------------------|
  G|-3---3--3-3--3-3-3-3-3-3-3--|-----------------------|
  D|----------------------------|-1----------4----------|



     Verse 2
  F|---------------------------------|---------------------------------|
  C|*--------------------------------|--------------------------------*|
  G|*5h7-0-0-0-0-0-0-0-0-0-0-0-0-0-0-|-5h7-0-8p7-0-5h7-0-0-0-0-0-0-0-0*|
  D|---------------------------------|---------------------------------|

  F|------------------------|---------------------------|
  C|------------------------|---------------------------|
  G|-0---0---0--0-0-0---0---|-0--0-0-0---0---0--0-0-0-0-|
  D|------------------------|---------------------------|

  F|---------------------------------|---------------------------------|
  C|---------------------------------|---------------------------------|
  G|-5h7-0-0-0-0-0-0-0-0-0-0-0-0-0-0-|-5h7-0-8p7-0-5h7-0-0-0-0-0-0-0-0-|
  D|---------------------------------|---------------------------------|


[ Tab from: http://www.guitartabs.cc/tabs/s/symphony_x/out_of_the_ashes_btab_ver_2.html ]
     Pre-Chorus 2
  F|-----------------------------------------------------|
  C|*------------------------------------------------2-4*|
  G|*2-4-----2-4------------4-----2-4------------2-4----*|
  D|--------------3---0-2-3------------3---0-2-3---------|

  F|-----------------------------------------------------|
  C|-------------------------------------------------2-4-|
  G|-2-4-----2-4------------4-----2-4------------2-4-----|
  D|--------------3---0-2-3------------3---0-2-3---------|

  F|-----------------------|-----------------------|--------------------------------------|
  C|-----------------------|-----------------------|--------------------------------------|
  G|-----------------------|-----------------------|-4------------------------------------|
  D|-0----------0----------|-1----------1----------|--------------------------------------|



     Chorus 2
  F|---------------------------------|---------------------------------|
  C|---------------------------------|---------------------------------|
  G|-0-0-0-0-0-0-0-0-3-3-3-3-3-3-3-3-|-4-4-4-4-4-4-4-4-2-2-2-2-2-2-2-2-|
  D|---------------------------------|---------------------------------|

  F|---------------------------------|---------------------------------|
  C|---------------------------------|---------------------------------|
  G|---------------------------------|-4-4-4-4-4-4-4-4-4-4-4-4-4-2-----|
  D|-2-2-2-2-2-2-2-2-4-4-4-4-4-4-4-4-|-----------------------------5-4-|

  F|---------------------------------|---------------------------------|
  C|---------------------------------|---------------------------------|
  G|-0-0-0-0-0-0-0-0-3-3-3-3-3-3-3-3-|-4-4-4-4-4-4-4-4-0-0-0-0-0-0-0-0-|
  D|---------------------------------|---------------------------------|

  F|---------------------------------|---------------------------------|
  C|---------------------------------|---------------------------------|
  G|---------------------------------|---------------------------------|
  D|-2-2-2-2-2-2-2-2-3-3-3-3-3-3-3-3-|-4-4-4-4-4-4-4-4-4-4-4-4-4-4-4-4-|



     Bridge 2
  F|-------------------------|-------------------------|-------------------------|
  C|-------------------------|-------------------------|-------------------------|
  G|-------------------------|-4-----------------------|-------------------------|
  D|-4---4---4--4-4-4-4-4-4--|-------------------------|-------------------------|



     Solo Rhythm 1
  F|------------------------------|--------------------------|
  C|------------------------------|--------------------------|
  G|----------------------1-2-4-5-|--------------------------|
  D|-2--0-2-3-2-----0-2-3---------|-2--0-2-3-2------3-----3--|

  F|------------------------------|--------------------------------|
  C|------------------------------|--------------------------------|
  G|----------------------1-2-4-5-|----------------3-3-3-3-3-3-3-3-|
  D|-2--0-2-3-2-----0-2-3---------|-2--0-2-3-2---------------------|

  F|------------------------------|--------------------------|
  C|------------------------------|--------------------------|
  G|----------------------1-2-4-5-|--------------------------|
  D|-2--0-2-3-2-----0-2-3---------|-2--0-2-3-2------3-----3--|

  F|-11h12p11h12-9h11p9h11-7h9p7h9-5h8p5h8-|--------------------------|
  C|---------------------------------------|-6------------------------|
  G|---------------------------------------|--------------------------|
  D|---------------------------------------|--------------------------|
     


     Solo Rhythm 2
  F|------------------------------|--------------------------|
  C|----------------------1-2-4-5-|--------------------------|
  G|-2--0-2-3-2-----0-2-3---------|-2--0-2-3-2------3-----3--|
  D|------------------------------|--------------------------|

  F|------------------------------|--------------------------------|
  C|----------------------1-2-4-5-|----------------3-3-3-3-3-3-3-3-|
  G|-2--0-2-3-2-----0-2-3---------|-2--0-2-3-2---------------------|
  D|------------------------------|--------------------------------|

  F|------------------------------|--------------------------|
  C|----------------------1-2-4-5-|--------------------------|
  G|-2--0-2-3-2-----0-2-3---------|-2--0-2-3-2------3-----3--|
  D|------------------------------|--------------------------|

  F|------------------------------|------------------------------|
  C|----------------------1-2-4-5-|------------------------------|
  G|-2--0-2-3-2-----0-2-3---------|-2--2--2--2--2---2-2-2--2--2--|
  D|------------------------------|------------------------------|



     Interlude
  F|-------------------5-4-2/11-9-8-12-|-11-9-8-------------------------------|
  C|-------4-2-1-5-4-2-----------------|--------10-9-7----------10-9-7--------|
  G|-3-2-0-----------------------------|---------------10-9-7-9--------10-9-7-|
  D|-----------------------------------|--------------------------------------|

  F|----------------------------------|-------------|
  C|-----9-7--------------------------|-5-----6-----|
  G|-6-7-----10-9-7-6-----------6-7-9-|-------------|
  D|------------------8-7-5-7-8-------|-------------|



     Chorus 3 (double)
  F|---------------------------------|---------------------------------|
  C|*--------------------------------|---------------------------------|
  G|*0-0-0-0-0-0-0-0-3-3-3-3-3-3-3-3-|-4-4-4-4-4-4-4-4-2-2-2-2-2-2-2-2-|
  D|---------------------------------|---------------------------------|

  F|---------------------------------|---------------------------------|
  C|---------------------------------|---------------------------------|
  G|---------------------------------|-4-4-4-4-4-4-4-4-4-4-4-4-4-2-----|
  D|-2-2-2-2-2-2-2-2-4-4-4-4-4-4-4-4-|-----------------------------5-4-|

  F|---------------------------------|---------------------------------|
  C|---------------------------------|---------------------------------|
  G|-0-0-0-0-0-0-0-0-3-3-3-3-3-3-3-3-|-4-4-4-4-4-4-4-4-0-0-0-0-0-0-0-0-|
  D|---------------------------------|---------------------------------|

  F|---------------------------------|---------------------------------|
  C|---------------------------------|---------------------------------|
  G|---------------------------------|---------------------------------|
  D|-2-2-2-2-2-2-2-2-3-3-3-3-3-3-3-3-|-4-4-4-4-4-4-4-4-4-4-4-4-4-4-4-4-|

  F|-------------------------|
  C|------------------------*|
  G|------------------------*|
  D|-4---4---4--4-4-4-4-4-4--|
  


     Outro
  F|-8-6-5---------------------------|-----------------------------|-----------------------||
  C|-------7-6-----------7-6-4-------|-----6-4---------------------|-----------------------||
  G|-----------9-7-6-4-6-------7-6-4-|-3-4-----7-6-4-3-------------|-3----------4----------||
  D|---------------------------------|------------------5----------|-----------------------||



     That's it! / Linus Abrahamson
     Please, if you find any mistakes, don't hesitate to send an e-mail and tell me about it!
     E-mail: mentalsjuk@yahoo.com
Comments