Symphony X - Orion The Hunter Chords & Tabs

 

Orion The Hunter Chords & Tabs

Symphony X Chords & Tabs

Version: 1 Type: Tab 0 ratings
1 star 2 stars 3 stars 4 stars 5 stars
comments

Orion The Hunter Tab

 Orion-the Hunter
  by Symphony X
 
E--------------------------------------------------------------------------------------|
B--------------------------------------------------------------------------------------|
G--------------------------------------------------------------------------------------| x 3
D--0h2-------------5/4---3/4-3h2-------------3-0h2------------5/4----0h2---------------|
A-/0h2-------------3/2---1/2-1h2-------------1-0h2------------3/2----0h2----2-2---2-2--|
E------0--0--0-0-0-----0---------0--0--0-0-0-------0-0--0-0-0-----0------0--0-0---0-0--|

E-----------------------|
B-----------------------|
G-----------------------| x 2
D-5----6---------6------|
A-3----4----5----4------|
E-----------3-----------|

with clean guitar :
E-------3----------4----------1----------3-----|
B-------3----------4--------1------------3-----|
G-----5----------6--------4------------5-------| x 2
D---5----------6---------------------5---------|
A-3----------4---------------------3-----------|
E-----------------------3----------------------|

Verse
E-------------------------------------------|
B-------------------------------------------|
G-------------------------------------------| x 4
D-------------------------------------------|
A-8-8-6-8--6-8-6-8-8--8-8-6-8--6-8-6-8-8----|
E-------------------------------------------|

E----------------------------------------------------------------|
B----------------------------------------------------------------|
G--------------------------------------5-8-6---6-5---5-3---3-1---|
D----------------------------------6-8-------8-----6-----5-------|
A-8-8-6-8--6-8-6-8-8--8-8-6-8--6-8-------------------------------|
E----------------------------------------------------------------|

E-------------------------------------------|
B-------------------------------------------|
G-------------------------------------------| x 4
D-3-3-1-3--1-3-1-3-3--3-3-1-3--1-3-1-3-3----|
A-------------------------------------------|
E-------------------------------------------|

E----------------------------------------------------------------|
B---------------------------------------------------------9---9--|
G----------------------------------1-0--------------------8---8--|
D-3-3-1-3--1-3-1-3-3--3-3-1-3--1-3-----3-1----------------6---6--|
A------------------------------------------4-3-1-----6--6---6----|
E------------------------------------------------4-3-4-----------|

E-------------------------------------2-2-0-0---------------------------|
B---------5-5-----5-5-3-3-----3-3-------------2-2-----------------------|
G-----4-4-----4-4---------2-2-----2-2-------------2-2-------------------| x 2
D-2-2-------------------------------------------------2-2---------5-----|
A---------------------------------------------------------4-5-4-0-3--5--|
E--------------------------------------------------------------------3--|

E-----------------------------------------------------------------------|
B-------------------------------------0-0-------------------------------|
G-2-2-----2-2-----2-2-0-0-----0-0---------2-2---------------------5-----|
D-----2-2-----2-2---------0-0-----0-0---------4-4-------------2-2-3--5--|
A-------------------------------------------------5-5-3-3-5-5--------3--|
E-----------------------------------------------------------------------|

E----------------------------------------------------------------------------|
B-------------------------------------0-0------------------------------------|
G-2-2-----2-2-----2-2-0-0-----0-0---------2-2---------------------5----------|
D-----2-2-----2-2---------0-0-----0-0---------4-4-------------2-2-3--5-------|
A-------------------------------------------------5-5-3-3-5-5--------3--5--7-|
E-----------------------------------------------------------------------3--5-|

CHORUS
E--------------------------------------------------------------------------------------|
B--------------------------------------------------------------------------------------|
G--------------------------------------------------------------------------------------| x 2
D--0h2-------------5/4---3/4-3h2-------------3-0h2------------5/4----0h2---------------|
A-/0h2-------------3/2---1/2-1h2-------------1-0h2------------3/2----0h2----2-2---2-2--|
E------0--0--0-0-0-----0---------0--0--0-0-0-------0-0--0-0-0-----0------0--0-0---0-0--|

 
E----------------------------------------------|
B-----2----2-----2---2-----2---2-----2---2-----|
G---1----------1---------1---------1-----------|
D----------------------------------------------|
A-4--------------------4-----------------------|
E-------0----2-----3---------0---2-----3-------|

E--------------------------------0--|
B-----2----2-----2---2-----2---2----|
G---1----------1---------1----------|
D----------------------------2------|
A-4--------------------4------------|
E-------0----2-----3----------------|

Verse :
E-----------------------------------------|
B-----------------------------------------|
G-----------------------------------------| x 4
D-----------------------------------------|
A-----------------------------------------|
E-4-4-2-4--2-4-2-4-4--4-4-2-4--2-4-2-4-4--|

E----------------------------------------------------|
B----------------------------------------------------|
G--------------------------------------4-3---3-1-----|
D----------------------------------4-6-----4-----2---|
A------------------------------4-6-------------------|
E-4-4-2-4--2-4-2-4-4--4-4-2-4------------------------|

E-----------------------------------------|
B-----------------------------------------|
G-----------------------------------------| x 3
D-----------------------------------------|
A-4-4-2-4--2-4-2-4-4--4-4-2-4--2-4-2-4-4--|
E-----------------------------------------|

E------------------------------------------------|
B------------------------------------------------|
G------------------------------------------------|
D---------------------------------------------7--|
A-4-4-2-4--2-4-2-4-4--4-4-2-4--2-4-2-4-4-4-4--5--|
E------------------------------------------------|

PRE CHORUS :
E-------------------------------------2-2-0-0---------------------------|
B---------5-5-----5-5-3-3-----3-3-------------2-2-----------------------|
G-----4-4-----4-4---------2-2-----2-2-------------2-2-------------------| x 2
D-2-2-------------------------------------------------2-2---------5-----|
A---------------------------------------------------------4-5-4-0-3--5--|
E--------------------------------------------------------------------3--|

E-----------------------------------------------------------------------|
B-------------------------------------0-0-------------------------------|
G-2-2-----2-2-----2-2-0-0-----0-0---------2-2---------------------5-----|
D-----2-2-----2-2---------0-0-----0-0---------4-4-------------2-2-3--5--|
A-------------------------------------------------5-5-3-3-5-5--------3--|
E-----------------------------------------------------------------------|

E----------------------------------------------------------------------------|
B-------------------------------------0-0------------------------------------|
G-2-2-----2-2-----2-2-0-0-----0-0---------2-2---------------------5----------|
D-----2-2-----2-2---------0-0-----0-0---------4-4-------------2-2-3--5-------|
A-------------------------------------------------5-5-3-3-5-5--------3--5--7-|
E-----------------------------------------------------------------------3--5-|

CHORUS
E--------------------------------------------------------------------------------------|
B--------------------------------------------------------------------------------------|
G--------------------------------------------------------------------------------------| x 2
D--0h2-------------5/4---3/4-3h2-------------3-0h2------------5/4----0h2---------------|
A-/0h2-------------3/2---1/2-1h2-------------1-0h2------------3/2----0h2----2-2---2-2--|
E------0--0--0-0-0-----0---------0--0--0-0-0-------0-0--0-0-0-----0------0--0-0---0-0--|

 
E----------------------------------------------|
B-----2----2-----2---2-----2---2-----2---2-----|
G---1----------1---------1---------1-----------|
D----------------------------------------------|
A-4--------------------4-----------------------|
E-------0----2-----3---------0---2-----3-------|
[ Tab from: http://www.guitartabs.cc/tabs/s/symphony_x/orion_the_hunter_tab.html ]
E---------------------------------0--8-8--8-8-|
B-----2----2-----2---2-----2----2----8-8--8-8-|
G---1----------1---------1-----------5-5--5-5-|
D-----------------------------2---------------|
A-4--------------------4----------------------|
E-------0----2-----3--------------------------|

Solo 1 :
E----------------------------------------------------------------------------------|
B-10b-----7h10p7-6~---6p5----------------------------------------------------------|
G-------------------------7p4h7~------------------------------------------14-16-14-|
D----------------------------------16-14----------16-14-16----------14-16----------|
A----------------------------------------17-14-17----------17-14-17----------------|
E----------------------------------------------------------------------------------|

E-------------12-14-12----/18b(19)-16-19-17vib---22-21-17-19-----17-----|
B----------15----------15------------------------------------19-----17--|
G-------16--------------------------------------------------------------|
D-16-14-----------------------------------------------------------------|
A-----------------------------------------------------------------------|
E-----------------------------------------------------------------------|

E------------------------------------------------------------10---|
B-17b(18)-18-17-15----5b(6)-5-3---1-3---------------------10------|
G-------------------------------------2----------------7----------|
D---------------------------------------5-3-5---------------------|
A---------------------------------------------8-7-5ah-------------|
E-----------------------------------------------------------------|

E------------------------------------------------------------------------------|
B--------------------------------------------------------10-13-12-10-----------|
G---------------------------------------------7-10-10-12-------------12-10-9---|
D-------------------5-7-8-10-8-----------7-10----------------------------------|
A-8-5---------5-7-8------------10-7-8-10---------------------------------------|
E-----8-6-5-8------------------------------------------------------------------|

Repeat chorus over keyboard solo
Guitar fill at the end of keyboard solo :
E----------19-18------------------------------------------|
B-------17-------18-17-15---------------------------------|
G----16-------------------16-15-13-------------------18---|
D-14-------------------------------17-15-14-------17------|
A-------------------------------------------17-16---------|
E---------------------------------------------------------|

Riff over keyboard solo 2 :
E------------------------------------------------------------|
B----------------------------------10------------------------|
G----------------------------------9-------------------------|
D-------------10-10--7--7-6---6-7--7--10-10--7--7-6---6-7----|
A-4---4---7---8--8---5--5-4-0-4-------8--8---5--5-4-0-4-5----|
E-2---2---5--------------------------------------------------|

E-----------------------------------------------------------------|
B-----------------------------------------------------------------|
G-----------------------------------------------------------------|
D------11-11---6--6-5---5-6------11-11---6--6-5---5-6------11-11--|
A-7----9--9----4--4-3-0-3-4--7---9--9----4--4-3-0-3-4--7---9--9---|
E-5--------------------------5-------------------------5----------|

repeat above once
E------------------------------------------------------|
B------------------------------------------------------|
G------------------------------------------------------|
D---------------------------------10-10-10--10-10------|
A--------------------------5-7-8--8--8--8---8--8-------|
E-6---4--6p4p3--1--3p1p0-------------------------------|

E-----------------------------|
B-----------------------------|
G-----------------------------|
D-----------------------------|
A---------------4-3---3-4-----|
E-4b(5)-4-4~--2-2-1-0-1-2-----|

Solo 2 :  
E-17ah-------------------------------------------------------------------|
B-------14h17p14---------------------------------------------------------|
G----------------15-18-12-15-9-12-11-9-10-11-10~----16ah-----------------|
D---------------------------------------------------------14----14-17ah--|
A------------------------------------------------------------16----------|
E------------------------------------------------------------------------|

E---------------18-------------19b(21)-----16h19p16----------------------|
B-/14---17------------------------------------------17-------------------|
G------------18----------18vib-------------------------18-16-------------|
D------------------------------------------------------------18----------|
A---------------------------------------------------------------19-18-16-|
E------------------------------------------------------------------------|

E--------------------------------------------------------------------------------------|
B-------------------------------------------------------17h19p17-----------------------|
G-------------------------15----------------------15h18----------15h18p15--------------|
D----------------------16----16-------------------------------------------16-----------|
A-13h16p13-16-13----16----------16p13-------13h16----------------------------16--------|
E----------------14-------------------16p14-------------------------------------18-14--|

E----------------------------16h19h21p19h21p19p16--------------|
B-------14h17p14h17-------------------------------17-----------|
G-------------------16p13h16-------------------------18-16-18~-|
D-14h16--------------------------------------------------------|
A--------------------------------------------------------------|
E--------------------------------------------------------------|

Solo 3: 
E--------------------------19-------18-------16----------19----18----16---|
B--17-16-14-------19------------------------------------------------------|
G-----------16h18----16h18----16h18----16h18----18p16h18----18----18------|
D-------------------------------------------------------------------------|
A-------------------------------------------------------------------------|
E-------------------------------------------------------------------------|

E----19----18----16--24b-24-21~----------------------------------------|
B------------------------------------------9h12p9----9-----------------|
G-18----18----18--------------------9b(ah)--------12---11/12p11-9----9-|
D-----------------------------------------------------------------11---|
A----------------------------------------------------------------------|
E----------------------------------------------------------------------|

E----------------------------------------------------------------------------|
B----------------------------------------------------------------------------|
G-------------------------------------------------------------------16-18----|
D-11-9-----------------------14-16-18-------14-16-18-14-------14-16-------16-|
A------11-10-9-----16--14-16----------14-16-------------14-16----------------|
E--------------12------------------------------------------------------------|

E-14h16-14p12-19p16p14p12-21p16h21p16p14p12p11-16-12-----------|
B----------------------------------------------------14-12-14--|
G--------------------------------------------------------------|
D--------------------------------------------------------------|
A--------------------------------------------------------------|
E--------------------------------------------------------------|

Keyboard solo
E---------------------------------------------------------------------------|
B---------------------------------------------------------------------------|
G---------------------------------------------------------------------------|
D--0h2-------------5/4---3/4-3h2-------------3-0h2------------5/4----0h2----|
A-/0h2-------------3/2---1/2-1h2-------------1-0h2------------3/2----0h2----|
E------0--0--0-0-0-----0---------0--0--0-0-0-------0-0--0-0-0-----0------0--|

E--------------------------------------------------------------------------|
B----------------------------------------------------------10--------------|
G-------12----12/11----11/9----9/7---7/6---6-7----------------9p7-----9~---|
D----14----14-------12------11-----9-----7-----9-7h8p7-5----------9p7------|
A--------------------------------------------------------7-----------------|
E-12-----------------------------------------------------------------------|

CHORUS
Comments